top separator

Home

Forum

What's New

Submit a Tab

FAQ

Links

Contact Us

Link to Us

MetalTabs.com logo

Bands

0-9

A

B

C

D

E

F

G

H

I

J

K

L

M

N

O

P

Q

R

S

T

U

V

W

X

Y

Z

Search

What

Where
 

Necrophagia - "Ancient Slumber" Guitar Tab

Plain Text Version
More Necrophagia Tabs

Hits: 4910
Rated: 4.00 out of 5 (2 votes)
Updated: 2003-03-23 14:55:36

 

Important note
We did our best to reach Necrophagia and ask for their permission to publish this tab. Unfortunately they did not respond to our requests or we could not find a way to contact them. This tab is available online until Necrophagia tells us to take it down.


#----------------------------------PLEASE NOTE---------------------------------#
#This file is the author's own work and represents their interpretation of the #
#song. You may only use this file for private study, scholarship, or research. #
#Unless specified otherwise, this is NOT an official tab from the band members.#
#------------------------------------------------------------------------------#

  Visit MetalTabs.com for more metal tablature
  
Artist:	Necrophagia
Album:	Season Of The Dead
Song:	Ancient Slumber

Copyright (c) New Renaissance 1987
Version 1.0 - 28. Dec. 2002

Transcribed by: Daniel F. (lokis_vault@gmx.net)


This is my first tab, I don't know if this is 100% correct.
For exact timing and order listen to the song.
For corrections, suggestions ...etc contact my e-mail-address


Tune down one whole step to "D"

.  - palm mute
b  - bend
h  - hammer on
\  - slide down
ph - pinched harmonic


Intro

part 1
|-----------------|
|-----------------|
|-----------------|
|-------------0---|
|-2-1-4-1-2-1---1-|
|-----------------|
  . . . . . . . .

part 2
|------------------------------------------------------|
|-----------------------------------------5---------7--|*
|-3-3-4-4-2-2-3-3-3-3-4-4-2-2-3-3-3-3-4-4---3-3-4-4----|
|------------------------------------------------------|
|------------------------------------------------------|
|------------------------------------------------------|
					  b         b

part 3
|-7-6-6-7-8-7-6-6-|
|-----------------|
|-----------------|
|-----------------|
|-----------------|
|-----------------|
  . . . . . . . .

part 4
|-----------------------------------------------------------|
|-----------------------------------------------------------|
|-------------------11--12----------------------------------|
|-13--12---10-12-13-9---10----------------------------------|
|-11--10---8--10-11---------12---12-12-12-12---12-12-12-13--|
|---------------------------10---10-10-10-10---10-10-10-11--|


play:

2x part 1
4x part 1 (part 2 over it *(the 2nd time play 8 and 10 instead of 5 and 7))
2x part 3
1x part 4 (part 3 over it)




1)

|-----------------------------------------------------------|
|-----------------------------------------------------------|
|-----------------------------------------------------------|
|-----------------------------------------------------------|
|----------------3------------------------------------------|
|-3--2-2-2-2-2-2----2-2-2-2-2-2-3--2-2-2-2-2-2-3--2-2-4--5--|
     . . . . . .    . . . . . .    . . . . . .    . .


1b)

|------------------------------------------------------------------|
|------------------------------------------------------------------|
|------------------------------------------------------------------|
|-4444444444444444555555555555555544444444444444443333333333333333-|
|------------------------------------------------------------------|
|------------------------------------------------------------------|


2)

|------------------------|
|------------------------|
|------------------------|
|-8888888877777777-9-8-7-|
|------------------7-6-5-|
|------------------------|


2b)

|----------------------------------|
|----------------------------------|
|----------------------------------|
|----------------------------------|
|-------------------------77778888-|
|-777777776666666677777777---------|


2c)

|----------------------------------------------------------------|
|----------------------------------------------------------------|
|---------------------------------------------------------7h8-9--|
|---------------------------------------------------------7h8----|
|-5-4\3-6-5-4\3-7-8-7\6-8-7-6\5-6-5-4\3-6-5-4\3-7-8-7\6-8--------|
|----------------------------------------------------------------|
  .     . .     . .     . .     . .     . .     . .     .     ph


3) over this is played a short solo i haven't figured out yet.

|-------------------------------------------------|
|-------------------------------------------------|
|-------------------------------------------------|
|-------------------------------------------------|
|-55555555555555555555555888888888888888888888888-|
|-------------------------------------------------|
  ...............................................


riff 1
riff 2
riff 2b


4)

|-------------------------------------------------------------------|
|-------------------------------------------------------------------|
|-----------------5---5-5-5-5-5-5-----------------------------5-----|
|-4---4-4-4-4-4-4-3---3-3-3-3-3-3-5---5-5-5-5-5-5-3---3-3-4---3---4-|
|-2---2-2-2-2-2-2-----------------3---3-3-3-3-3-3-1---1-1-2-------2-|
|-------------------------------------------------------------------|
      . . . . . .     . . . . . .     . . . . . .     . .


END

  Visit MetalTabs.com for more metal tablature

bottom separator

Contact Us | Privacy Policy | Disclaimer | Legal Notice
Copyright © 2001-2014 MetalTabs.com. All Rights Reserved.