top separator

Home

Forum

What's New

Submit a Tab

FAQ

Links

Contact Us

Link to Us

MetalTabs.com logo

Bands

0-9

A

B

C

D

E

F

G

H

I

J

K

L

M

N

O

P

Q

R

S

T

U

V

W

X

Y

Z

Search

What

Where
 

Sodom - "Baptism Of Fire" Guitar Tab

Plain Text Version
More Sodom Tabs

Hits: 5441
Rated: 4.33 out of 5 (3 votes)
Updated: 2003-03-17 16:32:55

 

By:

Kramer

sendpm.gif

email.gif

Important note
This tab is available online because we obtained explicit permission from Sodom or their label.


#----------------------------------PLEASE NOTE---------------------------------#
#This file is the author's own work and represents their interpretation of the #
#song. You may only use this file for private study, scholarship, or research. #
#Unless specified otherwise, this is NOT an official tab from the band members.#
#------------------------------------------------------------------------------#

  Visit MetalTabs.com for more metal tablature
  
Sodom "Baptism of Fire" from AGENT ORANGE (1989)

Tabbed by Nick S.

Riff 1 twice
A---------3-3----------3-3-----------2---------------3----------------2----------
E-0-0-0-0-1-1--0-0-0-0-1-1--0-0-0-0--0------0-0-0-0--1-------0-0-0-0--0----------

Riff 1 ending once after second time
A---------3-3----------3-3------------
E-0-0-0-0-1-1--0-0-0-0-1-1--0-0-0-0---

Riff 2 once
A------------------------------------------2--
E-0-0000-0--1-1111-1--0-0000-0--6-6666-6---0--
   (4x)       (4x)     (4x)       (4x)

Riff 3 twice
A----------------22222333--------------------22222233335555---
E-000000000033322--------33300000000000033322-----------------
Sounds a lot like Kreator's "Toxic Trace" doesn't it? I guess I should do a tab for that
song sometime.

Riff 4 4x
D---------------7---------------5--------------3------2---------
A---------------5---------------3--------------1------0------2--
E-0000000000000---0000000000000---000000000000---0000---0000-0--

Riff 3 twice
Riff 4 4x
Riff 3 twice

Riff 5 once
G-4-------------------------------4------------------------------4---------------4-----
D-2-------2-----------------------2-------2----------------------2-------2-------2-----
A---------0-------2-------4---------------0-------5----4-----------------0-------------
E-----------------0-------2-----------------------3----2-------------------------------

G-6--------4--------------------------------
D-4--------2-------2------------------------
A------------------0--------5--------4------
E---------------------------3--------2------

Riff 4 4x
Riff 3 twice

Ending
G-4--------------------------------------------------------
D-2--------------------------------------------------------
A---------------------------3-3----------3-3-----------2---
E-------------------0-0-0-0-1-1--0-0-0-0-1-1--0-0-0-0--0---
Play E5 chord again let it ring a second and screw around a little, then play E5 chord
again.

Any questions, feedback, or whatever send me an E-mail Pantera9560@aol.com w/ the subj.
"Sodom tabs." Check out my other Sodom tabs from this album. I also saw a "Remember the
Fallen" tab buried somewhere in the forum. Keep thrashin!

  Visit MetalTabs.com for more metal tablature

bottom separator

Contact Us | Privacy Policy | Disclaimer | Legal Notice
Copyright © 2001-2014 MetalTabs.com. All Rights Reserved.