top separator

Home

Forum

What's New

Submit a Tab

FAQ

Links

Contact Us

Link to Us

MuSpy.com

MetalTabs.com logo

Bands

0-9

A

B

C

D

E

F

G

H

I

J

K

L

M

N

O

P

Q

R

S

T

U

V

W

X

Y

Z

Search

What

Where
 

Sodom - "Magic Dragon" Guitar Tab

Plain Text Version
More Sodom Tabs

Hits: 9278
Rated: 3.75 out of 5 (4 votes)
Updated: 2003-03-17 16:32:32

 

By:

Kramer

sendpm.gif

email.gif

Important note
This tab is available online because we obtained explicit permission from Sodom or their label.


#----------------------------------PLEASE NOTE---------------------------------#
#This file is the author's own work and represents their interpretation of the #
#song. You may only use this file for private study, scholarship, or research. #
#Unless specified otherwise, this is NOT an official tab from the band members.#
#------------------------------------------------------------------------------#

  Visit MetalTabs.com for more metal tablature
  
Sodom "Magic Dragon" from AGENT ORANGE (1989)

Tabbed by Nick S. I'm not gonna say what stuff is palm-muted 'cause you can figure it out
if you listen to the song

Riff 1A once
D----------------------------------------9-9---
A-2-2----------2-5----------3-3----------7-7---
E-0-0----------0-3----------1-1----------------

Riff 1B once
A-2-2---2-2-2-2-2-2-2-2-2-2-2-2---5-5---5-5-5-5-5-5-5-5-5-5-5-5---3-3---3-3-3-3-3-3-3-3-3
E-0-0---0-0-0-0-0-0-0-0-0-0-0-0---3-3---3-3-3-3-3-3-3-3-3-3-3-3---1-1---1-1-1-1-1-1-1-1-1

A-3-3-3---2-2--
E-1-1-1---0-0--

Riff 2 twice
D------------------------------------------------------------------10-9-9----------------
A-2---------2---------2---------3--2-2---------2---------2----------8-7-7--------2-------
E-0--0-0-0--0--0-0-0--0--0-0-0--1--0-0--0-0-0--0--0-0-0--0--0-0-0---------0-0-0--0--0-0-0

A-2---------3--2-2---------2---------2---------3--2-2--
E-0--0-0-0--1--0-0--0-0-0--0--0-0-0--0--0-0-0--1--0-0--

Riff 3 4x
A-8-8--8-8--8/7---5---2-2--2-2--2--
E-6-6--6-6--6/5---3---0-0--0-0--0--

Riff 2 twice
Riff 3 4x

Riff 4 4x
D----------5--------4---------------------------
A----------3-333333-2-222222-3--------3---------
E-5-555555-------------------1-111111-1-111111--

Riff 5 once
D---------------------------------------------------------5----4----
A------------------------------------------------7---6----3----2----
E-000000000000554444444488887777----000000000000-5---4--------------
     (This is played 3x)              (Then this is played once)

Riff 4 4x
Riff 5 once

Riff 6 3x
D----------4-5----------------------
A-3--------2-3--3---------2---------
E-1-111111------1-111111--0-000000--
   (3x)           (3x)

Riff 4 4x
Riff 5 once
Riff 6 3x
Riff 6 ending - Strum palm-muted E5 chord a little bit

Riff 7 twice TOTAL
A------------------------------------------33-----
E-0-00-00-00-00-00-00-33-22-00-00-00-33-22----33--
(Play this twice then play the same thing one string higher twice then after 2nd time
of the whole thing end w/ E5 chord.)

Riff 8 - Play E5 chord & let it ring a second, then play F5 & let it ring a second.
Riff 8 is played 5x before it fades out.

Any questions, feedback or whatever send me an E-mail Pantera9560@aol.com w/ the subj.
"Sodom tabs." Check out my other tabs from this album, too. I saw a "Remember the Fallen"
tab buried somewhere in the forum, too. Keep thrashin'!

  Visit MetalTabs.com for more metal tablature

bottom separator

Contact Us | Privacy Policy | Disclaimer | Legal Notice
Copyright © 2001-2014 MetalTabs.com. All Rights Reserved.