top separator

Home

Forum

What's New

Submit a Tab

FAQ

Links

Contact Us

Link to Us

MuSpy.com

MetalTabs.com logo

Bands

0-9

A

B

C

D

E

F

G

H

I

J

K

L

M

N

O

P

Q

R

S

T

U

V

W

X

Y

Z

Search

What

Where
 

Sodom - "Agent Orange" Guitar Tab

Plain Text Version
More Sodom Tabs

Hits: 10494
Rated: 3.80 out of 5 (15 votes)
Updated: 2003-03-17 16:31:33

 

By:

Kramer

sendpm.gif

email.gif

Important note
This tab is available online because we obtained explicit permission from Sodom or their label.


#----------------------------------PLEASE NOTE---------------------------------#
#This file is the author's own work and represents their interpretation of the #
#song. You may only use this file for private study, scholarship, or research. #
#Unless specified otherwise, this is NOT an official tab from the band members.#
#------------------------------------------------------------------------------#

  Visit MetalTabs.com for more metal tablature
  
Sodom "Agent Orange" from AGENT ORANGE (1989)

Tabbed by Nick S.

Riff 1 4x
D---------------------4/5------------------------4/3-5/4---
A-----4-5-----3-------2/3-5------4-5-----3-------2/1-3/2---
E-0-0-2-3-0-0-1-0-0-0-----3--0-0-2-3-0-0-1-0-0-0-----------

Riff 2 3x
D-9---------9---------5---------5---------7---------7---------5---------4/5---
A-7--7-7-7--7--7-7-7--3--3-3-3--3--3-3-3--5--5-5-5--5--5-5-5--3--3-3-3--2/3---

Riff 3 twice
D-4---------4---------5---------5-------------------------------------------------------
A-2--2-2-2--2--3-2-0--3--3-3-3--3--3-2-0--5---------5---------5/4-----------5/4---------
E-----------------------------------------3--3-3-3--3--3-3-3--3/2--2-2-2-2--3/2--2-2-2-2
After second time play E5 chord and let it ring for a second.

Riff 4 4x
D------------------5/4---------------4----------------------5/4----------------------4-
A--------------5/4-3/2---------------2--4---------------5/4-3/2----------------4--3--2-
E-000000000000-3/2------000000000000----2--000000000000-3/2------000000000000--2--1----

Riff 5A once
D----------------------------------------------------------------5--4-----------5--4---
A-------------33222222222222--------------33222222222222-2--3----3--2---2--3----3--2---
E-111111111111--------------00111111111111---------------0--1-----------0--1-----------

A----5-5-5-5--
E-0--3-3-3-3--

Riff 4 3x
Riff 5A once

Riff 6 4x
G--------------------5p4-4p3------------------------------------------------------------
D-----------------------------------------------------5p4-4p3---------------------------
A-2-2-2-2-2-2-2-2-2-----------5--2---2-2-2-2-2-2-2-2------------5--2---2-2-2-2-2-2-2-2-2
E-0-0-0-0-0-0-0-0-0-----------3--0---0-0-0-0-0-0-0-0------------3--0---0-0-0-0-0-0-0-0-0

Riff 7A twice
D-9-----------8------------------------------
A-7-----------6------------10-----------9----
E---------------------------8-----------7----

Riff 7B once
D-9-------8-----------------------------------------------------9-------8---------------
A-7-7777--6-6666--10-------9---------------------2h3p2h3p2h3p2--7-7777--6-6666--10------
E------------------8-8888--7-7777--3h4p3h4p3h4p3---------------------------------8-8888-
   (4x)     (4x)    (4x)    (4x)                                  (4x)   (4x)     (4x)

D-----------------------2h3p2h3p2h3p2--9-------8---------------------------------------
A-9-------3h4p3h4p3h4p3----------------7-7777--6-6666--10-------9----------------------
E-7-7777------------------------------------------------8-8888--7-7777-3h4p3h4p3h4p3---
   (4x)                            (Do I really need to remind you 4x each?)

D----------------9-------8-----------------------------------------------------
A-2h3p2h3p2h3p2--7-7777--6-6666--10-------10---9-----------3-2--------------2--
E---------------------------------8-8888---8---7---------------3-2-0-2-3-2--0--

Riff 4 4x

Riff 5B 4x
D-----------5---4----
A-2---3-----3---2----
E-0---1--------------

4th time end w/
A----5-5-5-5-2--
E-0--3-3-3-3-0--

Riff 4 3x
Riff 5A once then a quick E5 chord.

Any questions, corrections, feedback or whatever send me an E-mail Pantera9560@aol.com
with the subj. "Sodom tabs." I'm gonna do 3 more tabs from this album right now and I'll
do some more stuff from the album sometime later. There is also a "Remember the Fallen"
tab buried somewhere in the forum. Keep thrashin'!

  Visit MetalTabs.com for more metal tablature

bottom separator

Contact Us | Privacy Policy | Disclaimer | Legal Notice
Copyright © 2001-2014 MetalTabs.com. All Rights Reserved.