top separator

Home

Forum

What's New

Submit a Tab

FAQ

Links

Contact Us

Link to Us

MetalTabs.com logo

Bands

0-9

A

B

C

D

E

F

G

H

I

J

K

L

M

N

O

P

Q

R

S

T

U

V

W

X

Y

Z

Search

What

Where
 

Cephalic Carnage - "Black Metal Sabbath" Guitar Tab

Plain Text Version
More Cephalic Carnage Tabs

Hits: 8701
Rated: 5.00 out of 5 (5 votes)
Updated: 2003-03-17 16:28:30

 

By:

Father Death

sendpm.gif

email.gif

Important note
This tab is available online because we obtained explicit permission from Cephalic Carnage or their label.


#----------------------------------PLEASE NOTE---------------------------------#
#This file is the author's own work and represents their interpretation of the #
#song. You may only use this file for private study, scholarship, or research. #
#Unless specified otherwise, this is NOT an official tab from the band members.#
#------------------------------------------------------------------------------#

  Visit MetalTabs.com for more metal tablature
  
Band:	CEPHALIC CARNAGE
Album:	Lucid Interval
Song:	Black Metal Sabbath

Transcribed by:	Chris Humeniuk
Email:	father_death_666@hotmail.com

Tuning: 2.5 steps down (B)

Keys:
   "  - tremelo pick
 /or\ - slide
  ___ - palm mute
   p  - pull off
   b  - bend


RIFF A:
(Gtr 1)
|------------------------------------------|
|------------------------------------------|
|------------------------------------------|
|-0"--5"--3"-5"-3"-----0"--5"--3"-5"-8"-7"-|
|------------------3"----------------------|
|------------------------------------------|

(Gtr 2)
|-------------------------------------------|
|-------------------------------------------|
|-----7"--5"-7"-5"---------7"--5"-7"-10"-9"-|
|-7"---------------5"--7"-------------------|
|-------------------------------------------|
|-------------------------------------------| 4x


RIFF B:
|---------------------------------------------------------|
|---------------------------------------------------------|
|--------------------------------------------11"-9/11-12"-|
|---------------------------------------------9"-7/-9-10"-|
|-3"------6"---2"---------3"------6"---2"-----------------|
|---------------------------------------------------------| 2x


RIFF A - 4x


RIFF C:
(Gtr 1)
|----------------------------|
|----------------------------|
|----------------------------|
|-9--9--8--9--10--10--8--8---|
|--77-77-77-77--77--77-66-66-|
|----------------------------|
   __ __ __ __  __  __ __ __

(Gtr 1)
|----------------------------|
|----------------------------|
|----------------------------|
|-9--9--8--9--10--10--8--8---|
|--77-77-77-77--77--77-66-66-|
|----------------------------|
   __ __ __ __  __  __ __ __

(Gtr 2)
|----------------------------|
|----------------------------|
|--------------------/7------|
|-9\-----------------/7------|
|-7\-------------------------|
|----------------------------|


|----------------------------|
|----------------------------|
|----------------------------|
|-9--9--8--9--10--10--8--8---|
|--77-77-77-77--77--77-66-66-|
|----------------------------| 2x
   __ __ __ __  __  __ __ __

|--------------------------|
|--------------------------|
|--------------------------|
|-7--7--6--7--8--8--6--6---|
|--55-55-55-55-55-55-44-44-|
|--------------------------| 2x
   __ __ __ __ __ __ __ __

|----------------------------|
|----------------------------|
|----------------------------|
|-9--9--8--9--10--10--8--8---|
|--77-77-77-77--77--77-66-66-|
|----------------------------| 2x
   __ __ __ __  __  __ __ __

|--------------------------|
|--------------------------|
|--------------------------|
|-7--7--6--7--8--8--6--6---|
|--55-55-55-55-55-55-44-44-|
|--------------------------| 2x
   __ __ __ __ __ __ __ __


RIFF D:
|-----------------------------------------------------------|
|-----------------------------------------------------------|
|-----------------------------------------------------------|
|-9-9-9-9-9-9-13"--12"--------9-9-9-9-9-9-13"--12"--5"------|
|-7-7-7-7-7-7-11"--10"--------7-7-7-7-7-7-11"--10"--3"------|
|-----------------------------------------------------------| 2x


RIFF B - 2x


(Gtr 1)
|------------------------------|
|------------------------------|
|------------------------------|
|-2----------------------------|
|-2----------------------------|
|-0----------------------------|

(Gtr 2)
|------------------------------|
|------------------------------|
|------------------------------|
|-9----------------------------|
|-7----------------------------|
|-0----------------------------|


|-----------------------------------|
|-----------------------------------|
|-----------------------------------|
|---------------------------5---5-7-|
|---------------------------5---5-7-|
|---------------------------3-0-3-5-|
                              _

RIFF E:
|-----------------------------------|
|-----------------------------------|
|-----------------------------------|
|-2----7---7---9-8----8\5---5---5-7-|
|-2----5---5---7-8----8\5---5---5-7-|
|-0--0---0---0---6--0-6\3-0-3-0-3-5-| 4x
     _   _   _      _     _   _


RIFF F:
|------------------------------------|
|------------------------------------|
|------------------------------------|
|------------------------------------|
|-2--2-2--2-2--2-2--2-2----5-7-------|
|-0--0-0--0-0--0-0--0-0--0-----6--3~-|
     ___  ___  ___  ___  _

(Gtr 1)
|-----------------------------------------------|
|-----------------------------------------------|
|-----------------------------------------------|
|---------------------------7---7-9p7-------5---|
|-2--2-2--2-2--2-2----5-7-8---7-------5-7-8---7-|
|-0--0-0--0-0--0-0--0---------------------------|
     ___  ___  ___  _

(Gtr 2)
|-----------------------------------------------|
|-----------------------------------------------|
|---------------------------7---7-9p7-----9-9p7-|
|---------------------5-7-8---7-------5-7-------|
|-2--2-2--2-2--2-2------------------------------|
|-0--0-0--0-0--0-0--0---------------------------|
     ___  ___  ___  _

(Gtr 1)
|------------------------------------|
|------------------------------------|
|------------------------------------|
|------------------------------------|
|-2--2-2--2-2--2-2--2-2----5-7-------|
|-0--0-0--0-0--0-0--0-0--0-----6--3~-|
     ___  ___  ___  ___  _

(Gtr 2)
|------------------------------------|
|------------------------------------|
|--------------------------7-9-------|
|------------------------------8--5~-|
|-2--2-2--2-2--2-2--2-2--------------|
|-0--0-0--0-0--0-0--0-0--0-----------|
     ___  ___  ___  ___  _

(Gtr 1)
|-----------------------------------------------|
|-----------------------------------------------|
|-----------------------------------------------|
|---------------------------7---7-9p7-------5---|
|-2--2-2--2-2--2-2----5-7-8---7-------5-7-8---7-|
|-0--0-0--0-0--0-0--0---------------------------|
     ___  ___  ___  _

(Gtr 2)
|-----------------------------------------------|
|-----------------------------------------------|
|---------------------------7---7-9p7----h7~\---|
|---------------------5-7-8---7-------5-7-------|
|-2--2-2--2-2--2-2------------------------------|
|-0--0-0--0-0--0-0--0---------------------------|
     ___  ___  ___  _


RIFF E - 4x


RIFF G:
|----------------------------------------------------|
|----------------------------------------------------|
|----------------------------------------------------|
|----------------------------------------------------|
|-2-------------------------2------------/5-7--------|
|-0--00000-00000-00000-0-3b-0-00000-0000------6-5~-3-|
  ______________________    ____________

|----------------------------------------------------|
|----------------------------------------------------|
|----------------------------------------------------|
|----------------------------------------------------|
|-2-------------------------2------------------5"--7-|
|-0--00000-00000-00000-0-3b-0-00000-0000-3-5-6-------| 3x
  ______________________    ____________


OUTRO:
|-----------------------------------|
|-----------------------------------|
|-----------------------------------|
|-2----7---7---9-8----8\5---5---5-7-|
|-2----5---5---7-8----8\5---5---5-7-|
|-0--0---0---0---6--0-6\3-0-3-0-3-5-| 3x
     _   _   _      _     _   _

|-----------------------------------------------------------|
|-----------------------------------------------------------|
|-----------------------------------------------------------|
|-2----7---7---9-8-------------------------8\5---5---5-7-2--|
|-2----5---5---7-8-------------------------8\5---5---5-7-2--|
|-0--0---0---0---6-----------------------0-6\3-0-3-0-3-5-0--| 4x
     _   _   _                           _     _   _

  Visit MetalTabs.com for more metal tablature

bottom separator

Contact Us | Privacy Policy | Disclaimer | Legal Notice
Copyright © 2001-2014 MetalTabs.com. All Rights Reserved.