top separator

Home

Forum

What's New

Submit a Tab

FAQ

Links

Contact Us

Link to Us

MuSpy.com

MetalTabs.com logo

Bands

0-9

A

B

C

D

E

F

G

H

I

J

K

L

M

N

O

P

Q

R

S

T

U

V

W

X

Y

Z

Search

What

Where
 

The Haunted - "The World Burns" Guitar Tab

Plain Text Version
More The Haunted Tabs

Hits: 6642
Rated: 3.40 out of 5 (5 votes)
Updated: 2003-03-17 16:19:26

 

Important note
This tab is available online because we obtained explicit permission from The Haunted or their label.


#----------------------------------PLEASE NOTE---------------------------------#
#This file is the author's own work and represents their interpretation of the #
#song. You may only use this file for private study, scholarship, or research. #
#Unless specified otherwise, this is NOT an official tab from the band members.#
#------------------------------------------------------------------------------#

  Visit MetalTabs.com for more metal tablature
  
Band:  The Haunted
Album: The Haunted Made Me Do It
Song:  The World Burns

THE HAUNTED - HOLLOW GROUND
From the Album THE HAUNTED MADE ME DO IT
Copyright 2000 EARACHE RECORDS
Version 1.1 - SEPTEMBER 2001

Transcribed By: KhaoNeu
Email: KhaoNeu@yahoo.com


.  - palm mute           /  - slide up to
\  - slide down to       ~  - vibrato
h  - hammer on           b  - Bend
p  - pull off            Suffixes for bend
t  - tap                 f  - full bend    h - half bend
ph - pinched harmonic    q  - quarter bend t - tap bend
*  - see comment         ^  - Hold bend    r release bend
x  - Stuccatto           ~  - vibrato bend
,  - slight palm mute    () - ghost note, sustained note
"  - tremolo note        <> - Trill

Ever string down 1/2 step
Note: This is my first time writting a tab, some of the stuff might
be off just try to work with it.
(Intro)
|----------------------------|--------------------------------------|
|----------------------------|--------------------------------------|
|----------------------------|--------------------------------------|
|-2-----------------5-----7--|-2-----------------5------------------|
|-2-----8p7---5p7-----7-----7|-0-----8p7---5p7-----7----------------|
|-0-0-0-----0-----0-----0----|-0-0-0-----0-----0-----0-7-6----------|

|----------------------------|--------------------------------------|
|----------------------------|--------------------------------------|
|----------------------------|--------------------------------------|
|-2-----------------5-----7--|-2-----------------5---8--------------|
|-2-----8p7---5p7-----7-----7|-0-----8p7---5p7---5---8--------------|
|-0-0-0-----0-----0-----0----|-0-0-0-----0-----0-3-0-6--------------|

(Riff 1a)
|-------------------------------|-----------------------------------|
|-------------------------------|-----------------------------------|
|-------------------------------|-----------------------------------|
|-------------------------------|-----------------8-----------------|
|-------------------------------|-----------------8-----------------|
|000-000-000-000-000-000-1-3-2-1|000-000-000-000--6--0-2-3-5--------|

(Riff 1b)
|-------------------------------|-----------------------------------|
|-------------------------------|-----------------------------------|
|-------------------------------|-----------------------------------|
|-------------------------------|----------------5-4-3--------------|
|-------------------------------|----------------3-2-1-3-2-1--------|
|000-000-000-000-000-000-1-3-2-1|000-000-000-000-------3-2-1--------|

(Riff 2)
|-------------------------------------------------------------------|
|-------------------------------------------------------------------|
|-------------------------------------------------------------------|
|------2---2-3-------4---4-0-------2---2-3--------------------------|
|0-000-2-0-2p3---------------------2---2p3-------5---2--------------|
|--------------1-111---1-----0-000---0-----4-444---4----------------|

|-------------------------------------------------------------------|
|-------------------------------------------------------------------|
|-------------------------------------------------------------------|
|------2---2-3-------4---4-0-------2---2-3-5--7-8-------------------|
|0-000-2-0-2p3---------------------2---2p3-5--7-8-------------------|
|--------------1-111---1-----0-000---0-----3--5-6-------------------|
(Riff 3)
|-------------------------------|-----------------------------------|
|-------------------------------|-----------------------------------|
|-------------------------------|-----------------------------------|
|-------------------------------|-----------------------------------|
|-------------------------------|--------1-----2-3---1-----2--------|
|000-000-000-000-000-000-1-3-2-1|000-000-1p0-0-2p3-0-1p0-0---1p3----|

|-------------------------------|-----------------------------------|
|-------------------------------|-----------------------------------|
|-------------------------------|-----------------------------------|
|-------------------------------|-----------------------------------|
|-------------------------------|--------1-----2-3---1-----2-1------|
|000-000-000-000-000-000-1-3-2-1|000-000-1p0-0-2p3-0-1p0-0----------|

[Repeat Riff 1b/Riff 2]

(Riff 4)
|--------------------------------------|-------------------------------------|
|--------------------------------------|-------------------------------------|
|--------------------------------------|-------------------------------------|
|2----9-7-9----4-5----10-10---10-9-10-9|2----9-7-9----4-5----10-10---3--3-6-6|
|2----7s5s7---------- 10-10---10-9-10-9|2----7s5s7-----------8--8------------|
|0-00-------00-2-3-00-8--8--0-8--7s8-s7|0-00-------00-2-3-00-------0-1--1s4-4|

(Riff 5)
|----0------5------7------------|-----------------------------------|
|1------3------6----------------|-----------------------------------|
|--2------4------7--------------|-----------------------------------|
|-------------------------------|-----------------------------------|
|-------------------------------|-----------------------------------|
|-------------------------------|-----------------------------------|

(Second Solo is something like this)
|------------------------------------------------------------------------|
|13--12-10-10-12-13-12--12-10-9-10-9h10p9----9---------------------------|
|-----------------------------------------10---10-9-10--10 9h10p9----9-10|
|-----------------------------------------------------------------12-----|
|------------------------------------------------------------------------|
|------------------------------------------------------------------------|

|-----------------------------------------------------------------------|
|----------------------------------9------------------------------------|
|9------7-----9------7-----9--9-10---10----10---10---10---10---10---10--|
|---7h8---9-7----7h8---9-7--------------10----9----7----6----7----9----7|
|-----------------------------------------------------------------------|
|-----------------------------------------------------------------------|

(Riff 6)
|-------------------------------------------------------------------------------|
|-------------------------------------------------------------------------------|
|-------------------------------------------------------------------------------|
|3-----3-----3---3-----3-----3---2-----2-----2---3-----3-----3---333-333-333-333|
|3-----3-----3---3-----3-----3---2-----2-----2---3-----3-----3---333-333-333-333|
|5-5-5-5-5-5-5-5-5-5-5-5-5-5-5-5-4-4-4-4-4-4-4-4-1-1-1-1-1-1-1-1-555-555-555-555|

[Repeat intro but add |5--3--|
		    |3--1--|
                      |3--1--|

[Repeat Riff 1a]

|-----------------------------------|-------------------------------------|
|-----------------------------------|-------------------------------------|
|-----------------------------------|-------------------------------------|
|2----9-7-9----4-5----10-9-7-5-4-5-4|2----9-7-9----4-5----3-5-7-9-10-9----|
|2----7s5s7---------- 10-9-7-5-4-5-4|2----7s5s7-----------3-5-7-9-10-9----|
|0-00-------00-2-3-00-8--7-5-3-2s3s2|0-00-------00-2-3-00-1-3-5-7-8--7----|

|-----------------------------------|----------------------------------------|
|-----------------------------------|----------------------------------------|
|-----------------------------------|----------------------------------------|
|2----9-7-9----4-5----10-9-7-5-4-5-4|2----9-7-9----4-5----3-3-2-2-3-3-5-5-6-2|
|2----7s5s7---------- 10-9-7-5-4-5-4|2----7s5s7-----------3-3-2-2-3-3-5-5-6-2|
|0-00-------00-2-3-00-8--7-5-3-2s3s2|0-00-------00-2-3-00-1-1-0-0-1-1-3-3-4-0|

This tab sucks, but I hope it works for you.

  Visit MetalTabs.com for more metal tablature

bottom separator

Contact Us | Privacy Policy | Disclaimer | Legal Notice
Copyright © 2001-2014 MetalTabs.com. All Rights Reserved.