top separator

Home

Forum

What's New

Submit a Tab

FAQ

Links

Contact Us

Link to Us

MuSpy.com

MetalTabs.com logo

Bands

0-9

A

B

C

D

E

F

G

H

I

J

K

L

M

N

O

P

Q

R

S

T

U

V

W

X

Y

Z

Search

What

Where
 

Lowbrow - "Non descript" Guitar Tab

Plain Text Version
More Lowbrow Tabs

Hits: 3442
Rated: 5.00 out of 5 (4 votes)
Updated: 2003-03-17 16:07:17

 

By:

INVERTED

sendpm.gif

email.gif

Important note
This tab is available online because we obtained explicit permission from Lowbrow or their label.


#----------------------------------PLEASE NOTE---------------------------------#
#This file is the author's own work and represents their interpretation of the #
#song. You may only use this file for private study, scholarship, or research. #
#Unless specified otherwise, this is NOT an official tab from the band members.#
#------------------------------------------------------------------------------#

  Visit MetalTabs.com for more metal tablature
  
                                 LOWBROW - NONDESCRIPT
                            From the Album - VICTIMS AT PLAY
                            Copyright - CROOK'D RECORDS 1999
                              Version 1.0 December 15, 2002


Transcribed by: James Williams (Inverted)

For Questions, Comments, Newest Version, or Corrections contact
Inverted: at Inverted_one@hotmail.com

Check Out Death8699.com or Metaltabs.com for More Transcriptions:
http://www.Death8699.com http://www.Metaltabs.com

.  - palm mute           /  - slide up to
\  - slide down to       ~  - vibrato
h  - hammer on           b  - bend
p  - pull off            Suffixes for bend ^
ph - pinched harmonic     f - full bend    h - half bend
*  - see comment          r - release      t - tap bend
X  - Rest                 ~ - vibrato bend q - quarter bend
,  - slight palm mute    () - ghost note, sustained note
"  - Tromolo note        <> - Trill
t\ - Tap slide

Tuning: "D"G"C"F"A"D"


Riff 1
|----------------------------------------------------------|
|----------------------------------------------------------|
|----------------------------------------------------------|
|--2-2-2-2-2-2x--2-2-2-2-2-2x--2-2-2-2-2-2x--2-2-2-2-2-2x--|
|--2-2-2-2-2-2x--2-2-2-2-2-2x--2-2-2-2-2-2x--2-2-2-2-2-2x--|
|--0-0-0-0-0-0x--0-0-0-0-0-0x--0-0-0-0-0-0x--0-0-0-0-0-0x--|


Riff 2
|------------------------------------|
|------------------------------------|
|------------------------------------|
|------------------------------------|
|------66665555--------44443333------|
|--3333--------66661111--------4444--|


Riff 3
|-----------------------------------------------------------|
|-----------------------------------------------------------|
|-----------------------------------------------------------|
|--2-2-2-2-2-2x--2-2-2-2-2-2x--2-2-2-2-2-2x--2-2-2-2-2-2-6--|
|--2-2-2-2-2-2x--2-2-2-2-2-2x--2-2-2-2-2-2x--2-2-2-2-2-2-4--|
|--0-0-0-0-0-0x--0-0-0-0-0-0x--0-0-0-0-0-0x--0-0-0-0-0-0-4--|
|                                                           |
|                                                           |
|-----------------------------------------------------------|
|-----------------------------------------------------------|
|-----------------------------------------------------------|
|--2-2-2-2-2-2x--2-2-2-2-2-2x--2-2-2-2-2-2x--2-2-2-2-2-2-3--|
|--2-2-2-2-2-2x--2-2-2-2-2-2x--2-2-2-2-2-2x--2-2-2-2-2-2-3--|
|--0-0-0-0-0-0x--0-0-0-0-0-0x--0-0-0-0-0-0x--0-0-0-0-0-0-1--|


Fill 1
|----------------------------------------------------|
|----------------------------------------------------|
|----------------------------------------------------|
|--2-------------------------------------------------|
|--2-------------------------------------------------|
|--0-------------------------------------------------|


Riff 4
|----------------------------------------------------|
|----------------------------------------------------|
|----------------------------------------------------|
|--6-------5-----------------------------------------|
|--4-------3-----------------------------------------|
|--4-------3-------00000000000000001111111133334444--|


Riff 5
|------------------------------------|
|------------------------------------|
|------------------------------------|
|------------------------------------|
|----------------------444433331111--|
|--00000000111111113333--------------|


End
|----------------------|
|----------------------|
|----------------------|
|--9-9-9-9-9-9-(9)///--|
|--7-7-7-7-7-7-(7)///--|
|--0-0-0-0-0-0---------|


Check out my other tabs by: Deicide, Obituary, Hypocrisy,
Grave, Catastrophic, Six Feet Under, Incantation, Death,
Cannibal Corpse, Broken Hope, Cancer, Dark Tranquillity,
Malevolent Creation and Lowbrow.

  Visit MetalTabs.com for more metal tablature

bottom separator

Contact Us | Privacy Policy | Disclaimer | Legal Notice
Copyright © 2001-2014 MetalTabs.com. All Rights Reserved.