top separator

Home

Forum

What's New

Submit a Tab

FAQ

Links

Contact Us

Link to Us

MuSpy.com

MetalTabs.com logo

Bands

0-9

A

B

C

D

E

F

G

H

I

J

K

L

M

N

O

P

Q

R

S

T

U

V

W

X

Y

Z

Search

What

Where
 

Trail of Tears - "In Frustration's Web" Guitar Tab

Plain Text Version
More Trail of Tears Tabs

Hits: 4929
Rated: 5.00 out of 5 (1 vote)
Updated: 2003-03-16 14:45:15

 

By:

Darkenelf

sendpm.gif

email.gif

Important note
This tab is available online because we obtained explicit permission from Trail of Tears or their label.


#----------------------------------PLEASE NOTE---------------------------------#
#This file is the author's own work and represents their interpretation of the #
#song. You may only use this file for private study, scholarship, or research. #
#Unless specified otherwise, this is NOT an official tab from the band members.#
#------------------------------------------------------------------------------#

  Visit MetalTabs.com for more metal tablature
  
Band: Trail of Tears
Album: Profoundemonium
Song: In Frustration's Web
Tabbed by: Martijn Wietsma
Email: dalvanian@yahoo.com
Date: 1-12-2002

Tune down to D#
x = palm mute
/ = forward slide
\ = backward slide
h = hammer on


Riff A
|--------------------------------------------------------|
|--------------------------------------------------------|
|--------------------------------------------------------|
|--------------------------------------------------------|
|-----7------7------7------7---10-10---------------------|
|-5-5-5--5-5-5--5-5-5--5-5-5----8--8---------------------|
  x x    x x    x x    x x 			         (4x)

Riff B
|--------------------------------------------------------|
|--------------------------------------------------------|
|--------------------------------------------------------|
|--------7/9-----------------------7/9-------------------|
|-7-7-7--5/7--7-7-7--8-7-5--7-7-7--5/7--7-8-9-10-9-8-7---|
|-5-5-5-------5-5-5--6-5-3--5-5-5-------5-6-7--8-7-6-5---|
  x x x       x x x         x x x       x x x  x x x x
						(6x)
Riff C
|--------------------------------------------------------|
|--------------------------------------------------------|
|--------------------------------------------------------|
|----7-5-------5-3---------------------------------------|
|-5------8---3-----6-------------------------------------|
|--------------------------------------------------------|
						(4x)
Riff B
|--------------------------------------------------------|
|--------------------------------------------------------|
|--------------------------------------------------------|
|--------7/9-----------------------7/9-------------------|
|-7-7-7--5/7--7-7-7--8-7-5--7-7-7--5/7--7-8-9-10-9-8-7---|
|-5-5-5-------5-5-5--6-5-3--5-5-5-------5-6-7--8-7-6-5---|
  x x x       x x x         x x x       x x x  x x x x
						(6x)
Riff D
|--------------------------------------------------------|
|--------------------------------------------------------|
|--------------------------------------------------------|
|----7---------------------------------------------------|
|-7--5--7--10--12----------------------------------------|
|-5-----5---8--10----------------------------------------|
						(2x)
Riff E
|--------------------------------------------------------|
|--------------------------------------------------------|
|--------------------------------------------------------|
|--------------------------------------------------------|
|-7-7-7-7--7-7-7-7--7-7-7-7--7-5-5-5---------------------|
|-5-5-5-5--5-5-5-5--5-5-5-5--5-3-3-3---------------------|
  x x x x  x x x x  x x x x    x x x

|--------------------------------------------------------|
|--------------------------------------------------------|
|--------------------------------------------------------|
|--------------------------------------------------------|
|-7-7-7-7--7-7-7-7--3-3-3-3--5-5-5-5---------------------|
|-5-5-5-5--5-5-5-5--1-1-1-1--3-3-3-3---------------------|
  x x x x  x x x x  x x x x  x x x x

Riff E
|--------------------------------------------------------|
|--------------------------------------------------------|
|--------------------------------------------------------|
|--------------------------------------------------------|
|-7-7-7-7--7-7-7-7--7-7-7-7--7-5-5-5---------------------|
|-5-5-5-5--5-5-5-5--5-5-5-5--5-3-3-3---------------------|
  x x x x  x x x x  x x x x    x x x

|--------------------------------------------------------|
|--------------------------------------------------------|
|--------------------------------------------------------|
|--------------------------------------------------------|
|-7-7-7-7--7-7-7-7--3-3-3-3--5-5-5-5---------------------|
|-5-5-5-5--5-5-5-5--1-1-1-1--3-3-3-3---------------------|
  x x x x  x x x x  x x x x  x x x x

Riff F
|--------------------------------------------------------|
|--------------------------------------------------------|
|--------------------------------------------------------|
|--------------------------------------------------------|
|----------7-------7-----7-----------9-------9-----9-----|
|-5-5-5-5--5--5-5--5--5--5--7-7-7-7--7--7-7--7--7--7-----|
  x x x x     x x     x     x x x x     x x     x

|--------------------------------------------------------|
|--------------------------------------------------------|
|--------------------------------------------------------|
|--------------------------------------------------------|
|----------7-------7-----7-----------5-------5-----5-----|
|-5-5-5-5--5--5-5--5--5--5--3-3-3-3--3--3-3--3--3--3-----|
  x x x x     x x     x     x x x x     x x     x
						(4x)
Riff G
|--------------------------------------------------------|
|--------------------------------------------------------|
|--------------------------------------------------------|
|--------------------------------------------------------|
|--------------------------------------------------------|
|-55555555-77777777-55555555-33333333--------------------|
  xxxxxxxx xxxxxxxx xxxxxxxx xxxxxxxx	         (2x)

Riff B
|--------------------------------------------------------|
|--------------------------------------------------------|
|--------------------------------------------------------|
|--------7/9-----------------------7/9-------------------|
|-7-7-7--5/7--7-7-7--8-7-5--7-7-7--5/7--7-8-9-10-9-8-7---|
|-5-5-5-------5-5-5--6-5-3--5-5-5-------5-6-7--8-7-6-5---|
  x x x       x x x         x x x       x x x  x x x x
						(4x)
Riff C
|--------------------------------------------------------|
|--------------------------------------------------------|
|--------------------------------------------------------|
|----7-5-------5-3---------------------------------------|
|-5------8---3-----6-------------------------------------|
|--------------------------------------------------------|
						(4x)
Riff H
|--------------------------------------------------------|
|--------------------------------------------------------|
|--------------------------------------------------------|
|----------2------------2------------2------------2------|
|-7--5--3--2---7--5--3--2---7--5--3--2---7--5--3--2------|
|-5--3--1--0---5--3--1--0---5--3--1--0---5--3--1--0------|

Riff D
|--------------------------------------------------------|
|--------------------------------------------------------|
|--------------------------------------------------------|
|----7---------------------------------------------------|
|-7--5--7--10--12----------------------------------------|
|-5-----5---8--10----------------------------------------|
						(4x)

  Visit MetalTabs.com for more metal tablature

bottom separator

Contact Us | Privacy Policy | Disclaimer | Legal Notice
Copyright © 2001-2014 MetalTabs.com. All Rights Reserved.