top separator

Home

Forum

What's New

Submit a Tab

FAQ

Links

Contact Us

Link to Us

MetalTabs.com logo

Bands

0-9

A

B

C

D

E

F

G

H

I

J

K

L

M

N

O

P

Q

R

S

T

U

V

W

X

Y

Z

Search

What

Where
 

Trail of Tears - "Profoundemonium" Guitar Tab

Plain Text Version
More Trail of Tears Tabs

Hits: 5340
Rated: 4.50 out of 5 (2 votes)
Updated: 2003-03-16 14:44:43

 

By:

Darkenelf

sendpm.gif

email.gif

Important note
This tab is available online because we obtained explicit permission from Trail of Tears or their label.


#----------------------------------PLEASE NOTE---------------------------------#
#This file is the author's own work and represents their interpretation of the #
#song. You may only use this file for private study, scholarship, or research. #
#Unless specified otherwise, this is NOT an official tab from the band members.#
#------------------------------------------------------------------------------#

  Visit MetalTabs.com for more metal tablature
  
Band: Trail of Tears
Album: Profoundemonium
Song: Profoundemonium
Tabbed by: Martijn Wietsma
Email: dalvanian@yahoo.com
Date: 1-12-2002

Tune down to D#
X = palm mute
/ = forward slide
\ = backward slide
h = hammer on
p = pick on

Riff A (acoustic)
|--------------------------------------------------------|
|--------------------------------------------------------|
|--------------------------------------------------------|
|--------------------------------------------------------|
|---2h3----3h5----2h3--2h----2h3h5---------------------7-|
|-5------5------5---------5----------------------------5-|
						(4x)
Riff B
|--------------------------------------------------------|
|--------------------------------------------------------|
|--------------------------------------------------------|
|--------------------------------------------------------|
|-7--7--7--7---7-7-7-7-----------------------------------|
|-5--5--5--5---5-5-5-5-----------------------------------|
  x  x  x  x   x x x x 				(4x)

Riff C1 (chords)
|--------------------------------------------------------|
|--------------------------------------------------------|
|--------------------------------------------------------|
|--------------------------------------------------------|
|-7---5-7---5-7--5-7-------------------------------------|
|-5---3-5---3-7--5-7-------------------------------------|
						(2x)
Riff C2 (lead)
|--------------3-----------------------------------------|
|----------5-6------------5------------------------------|
|----------------------------5---------------------------|
|-7---5-7------------------------------------------------|
|-----------------7-5-7----------------------------------|
|--------------------------------------------------------|
						(2x)
Riff D en C2 (together)
|--------------------------------------------------------|
|--------------------------------------------------------|
|--------------------------------------------------------|
|--------------------------------------------------------|
|-7-----7--7-5--7-----7--7-5--7-----7--7-5--7-----7--7---|
|-5-5-5-5--5-3--5-5-5-5--5-3--7-7-7-7--7-5--7-7-7-7--7---|
    x x           x x           x x           x x
						(2x)
Riff B
|--------------------------------------------------------|
|--------------------------------------------------------|
|--------------------------------------------------------|
|--------------------------------------------------------|
|-7--7--7--7---7-7-7-7-----------------------------------|
|-5--5--5--5---5-5-5-5-----------------------------------|
  x  x  x  x   x x x x 				(4x)

Riff C1 (chords)
|--------------------------------------------------------|
|--------------------------------------------------------|
|--------------------------------------------------------|
|--------------------------------------------------------|
|-7---5-7---5-7--5-7-------------------------------------|
|-5---3-5---3-7--5-7-------------------------------------|
						(2x)
Riff C2 (lead)
|--------------3-----------------------------------------|
|----------5-6------------5------------------------------|
|----------------------------5---------------------------|
|-7---5-7------------------------------------------------|
|-----------------7-5-7----------------------------------|
|--------------------------------------------------------|
						(2x)
Riff D en C2 (together)
|--------------------------------------------------------|
|--------------------------------------------------------|
|--------------------------------------------------------|
|--------------------------------------------------------|
|-7-----7--7-5--7-----7--7-5--7-----7--7-5--7-----7--7---|
|-5-5-5-5--5-3--5-5-5-5--5-3--7-7-7-7--7-5--7-7-7-7--7---|
    x x           x x           x x           x x
						(2x)
Riff E (acoustic)
|--------------------------------------------------------|
|--------------------------------------------------------|
|-----7--------------------------------------------------|
|---7----7---5---5-8---7---------------------------------|
|-5--------5---5-----5-----------------------------------|
|--------------------------------------------------------|
						(2x)
|--------------------------------------------------------|
|--------------------------------------------------------|
|-----9--------------------------------------------------|
|---9---9----7---7-10---9--------------------------------|
|-7--------7---7------7----------------------------------|
|--------------------------------------------------------|
						(2x)
Riff E (acoustic)
|--------------------------------------------------------|
|--------------------------------------------------------|
|-----7--------------------------------------------------|
|---7----7---5---5-8---7---------------------------------|
|-5--------5---5-----5-----------------------------------|
|--------------------------------------------------------|
						(2x)
|--------------------------------------------------------|
|--------------------------------------------------------|
|-----9--------------------------------------------------|
|---9---9----7---7-10---9--------------------------------|
|-7--------7---7------7----------------------------------|
|--------------------------------------------------------|
						(2x)
Riff E (chords)
|--------------------------------------------------------|
|--------------------------------------------------------|
|--------------------------------------------------------|
|-7------7-7---------9--------9-9------------------------|
|-5------5-5---------7--------7-7------------------------|
|--------------------------------------------------------|
         x x                  x x
						(4x)
Riff F
|--------------------------------------------------------|
|--------------------------------------------------------|
|-----7--------------------------------------------------|
|---7----7---5---5-8---7---------------------------------|
|-5--------5---5-----5-----------------------------------|
|--------------------------------------------------------|
  x x      x   x     x				(2x)
|--------------------------------------------------------|
|--------------------------------------------------------|
|-----9--------------------------------------------------|
|---9---9----7---7-10---9--------------------------------|
|-7--------7---7------7----------------------------------|
|--------------------------------------------------------|
  x        x   x      x 			         (2x)
|--------------------------------------------------------|
|--------------------------------------------------------|
|-----7--------------------------------------------------|
|---7----7---5---5-8---7---------------------------------|
|-5--------5---5-----5-----------------------------------|
|--------------------------------------------------------|
  x x      x   x     x				(2x)
|--------------------------------------------------------|
|--------------------------------------------------------|
|-----9--------------------------------------------------|
|---9---9----7---7-10---9--------------------------------|
|-7--------7---7------7----------------------------------|
|--------------------------------------------------------|
  x        x   x      x 			         (2x)

Riff G
|--------------------------------------------------------|
|--------------------------------------------------------|
|--------------------------------------------------------|
|--------------------------------------------------------|
|-7-7-7-7-8-8-8-/-12-------------------------------------|
|-5-5-5-5-6-6-6-/-10-------------------------------------|
						(4x)
Riff H
|--------------------------------------------------------|
|--------------------------------------------------------|
|--------------------------------------------------------|
|--------------------------------------------------------|
|-7--7-7--8--8-/-12--------------------------------------|
|-5--5-5--6--6-/-10--------------------------------------|
     x x     x					(8x)

Riff I (keyboard)
|--------------------------------------------------------|
|--------------------------------------------------------|
|--------------------------------------------------------|
|--------------------------------------------------------|
|--------------------------------------------------------|
|-5--5h6--5/10-------------------------------------------|
						(8x)
Riff H
|--------------------------------------------------------|
|--------------------------------------------------------|
|--------------------------------------------------------|
|--------------------------------------------------------|
|-7--7-7--8--8-/-12--------------------------------------|
|-5--5-5--6--6-/-10--------------------------------------|
     x x     x					(8x)

Riff A (acoustic)
|--------------------------------------------------------|
|--------------------------------------------------------|
|--------------------------------------------------------|
|--------------------------------------------------------|
|---2h3----3h5----2h3--2h----2h3h5---------------------7-|
|-5------5------5---------5----------------------------5-|
						(4x)
Riff B
|--------------------------------------------------------|
|--------------------------------------------------------|
|--------------------------------------------------------|
|--------------------------------------------------------|
|-7--7--7--7---7-7-7-7-----------------------------------|
|-5--5--5--5---5-5-5-5-----------------------------------|
  x  x  x  x   x x x x 				(4x)

Riff C1 (chords)
|--------------------------------------------------------|
|--------------------------------------------------------|
|--------------------------------------------------------|
|--------------------------------------------------------|
|-7---5-7---5-7--5-7-------------------------------------|
|-5---3-5---3-7--5-7-------------------------------------|
						(2x)
Riff C2 (lead)
|--------------3-----------------------------------------|
|----------5-6------------5------------------------------|
|----------------------------5---------------------------|
|-7---5-7------------------------------------------------|
|-----------------7-5-7----------------------------------|
|--------------------------------------------------------|
						(2x)
Riff D en C2 (together)
|--------------------------------------------------------|
|--------------------------------------------------------|
|--------------------------------------------------------|
|--------------------------------------------------------|
|-7-----7--7-5--7-----7--7-5--7-----7--7-5--7-----7--7---|
|-5-5-5-5--5-3--5-5-5-5--5-3--7-7-7-7--7-5--7-7-7-7--7---|
    x x           x x           x x           x x
						(2x)
Riff B
|--------------------------------------------------------|
|--------------------------------------------------------|
|--------------------------------------------------------|
|--------------------------------------------------------|
|-7--7--7--7---7-7-7-7-----------------------------------|
|-5--5--5--5---5-5-5-5-----------------------------------|
  x  x  x  x   x x x x 				(4x)

Riff A (keyboard)
|--------------------------------------------------------|
|--------------------------------------------------------|
|--------------------------------------------------------|
|--------------------------------------------------------|
|---2h3----3h5----2h3--2h----2h3h5---------------------7-|
|-5------5------5---------5----------------------------5-|
						(4x)
Riff H
|--------------------------------------------------------|
|--------------------------------------------------------|
|--------------------------------------------------------|
|--------------------------------------------------------|
|-7--7-7--8--8-/-12--------------------------------------|
|-5--5-5--6--6-/-10--------------------------------------|
     x x     x					(8x)

Riff I
|--------------------------------------------------------|
|--------------------------------------------------------|
|--------------------------------------------------------|
|--------------------------------------------------------|
|-7--7-7--8--8-/-12--------------------------------------|
|-5--5-5--6--6-/-10--------------------------------------|
  x  x x  x  x	x				(8x)

  Visit MetalTabs.com for more metal tablature

bottom separator

Contact Us | Privacy Policy | Disclaimer | Legal Notice
Copyright © 2001-2014 MetalTabs.com. All Rights Reserved.