#----------------------------------PLEASE NOTE---------------------------------#
#This file is the author's own work and represents their interpretation of the #
#song. You may only use this file for private study, scholarship, or research. #
#Unless specified otherwise, this is NOT an official tab from the band members.#
#------------------------------------------------------------------------------#

  Visit MetalTabs.com for more metal tablature
  
Band: Catamenia
Song: Winternacht
Album: Morning Crimson
Tab by Interfector
This is a difficult song to hear so if any one has corrections please mail me
interfector@hotmail.com

D tunning (D,G,C,F)

Comments = 1. let ring
Listen the song for timing.

Intro
         |1 , 3   |2 ,4    |
|-------------------------|
|-----3-------------------|
|---5---5-2-3-2-4432-----|
|-0-------------------432-|

Riff 1
                     |1 .           |
|-----------------------------------------
|-----------3333--------------------------
|------5555------55552222333322224444----
|-0000------------------------------------

|2.                     |
 -----------------------|
 -----------------------|
 -4444332222------------|
 ------------4444332222-|

Riff 1b
                           |1.             |
|-------------------------------------------
|-------------111111------------------------
|-------33333-------333333-0000111100002222-
|-00000-------------------------------------

|2.                      |
-------------------------|
-------------------------|
--2222110000-------------|
-------------22222110000-|


Verse riff
|-------------------------------------------------
|-------------------------------------------------
|---------3333333---------------------------------
|-2222222---------22222222222222222000-2222222222-


--------------------------------------|
--------------------------------------|
--333333333---------------------------|
------------222222225555555533333333--|


Riff 3
|--------------------------------------------------------------------|
|--------------------------------------------------------------------|
|------------0000111133333333----------------------------------------|
|-22223333-----------------------222223333344444455555500000111111---|

End

|------------------------------------|
|------------------------------------|
|----3-3-3-4-------------------------|
|------------------------------------|
           1.


Song structure:
Intro x4
Riff 1 x2
Riff 1b x2
Verse riff x2
Riff 3 x4
Verse riff
Riff 1 x2
Riff 1b x2
End x1

  Visit MetalTabs.com for more metal tablature