top separator

Home

Forum

What's New

Submit a Tab

FAQ

Links

Contact Us

Link to Us

MuSpy.com

MetalTabs.com logo

Bands

0-9

A

B

C

D

E

F

G

H

I

J

K

L

M

N

O

P

Q

R

S

T

U

V

W

X

Y

Z

Search

What

Where
 

Ablaze My Sorrow - "Erased / relived" Guitar Tab

Plain Text Version
More Ablaze My Sorrow Tabs

Hits: 7116
Rated: 4.67 out of 5 (3 votes)
Updated: 2003-03-16 14:31:27

 

By:

Vortigern

sendpm.gif

email.gif

Important note
This tab is available online because we obtained explicit permission from Ablaze My Sorrow or their label.


#----------------------------------PLEASE NOTE---------------------------------#
#This file is the author's own work and represents their interpretation of the #
#song. You may only use this file for private study, scholarship, or research. #
#Unless specified otherwise, this is NOT an official tab from the band members.#
#------------------------------------------------------------------------------#

  Visit MetalTabs.com for more metal tablature
  
Ablaze My Sorrow  Erased/Relived
                     From the Album 'Anger, Hate And Fury'
              Copyright 2002, No Fashion
                     Version 1.0  November 2002

Transcribed by: Vortigern

For Questions, Comments, Newest Version, or Corrections contact
Vortigern: at guy@freemail.hammerfall.net
http://www.everglow.be

Check Out Death8699.com, With More Transcriptions On It:
 http://www.death8699.com

.  - palm mute                  ph    - pinched harmonic
/  - slide up to                ah    - artificial harmonic
\  - slide down to              th    - tap harmonic
~  - vibrato                    hr    - natural harmonic
h  - hammer on                  b     - bend
p  - pull off                      Suffixes for bend
t  - tap with finger                    f - full bend    h - half bend
"  - tremolo picking                    r - release      t - tap bend
X  - percussion mute                    p - pick when bent
>  - accented note                 Prefixes
() - ghost note, sustained note         p - pre-bend     w - use bar
*  - see comment                        d - don't pick start of bend

Tune Gtr to D

ERASED/RELIVED

Riff A, both guitars
|-------------------------------------------------------------------------|
|-------------------------------------------------------------------------|
|-------------------------------------------------------------------------|
|-------------------------------------------------------------------------|
|---7---7---7-8----7---7-10-9-10-12------7---7---7-8---7---7-10-9-10-12---|
|-0---0---0------0---0---8--7-8--10----0---0---0-----0---0---8--7-8--10-0-|
  . " . " . " "  . " . "               . " . " . " " . " . "

Riff B, both guitars
|--------------------------------------------------------------------|
|--------------------------------------------------------------------|
|--------------------------------------------------------------------|
|-9-7-9-----------------------7-9-7----------------------------------|
|-------10----7-6-7---6-7-9---------10---7-6-7-9-9-10-10-------------|
|-----------8-------7-------0----------8-------7-7-8--8--------------|
  " " " "   " " " " " " " "   " " " "  " " " "

Riff C, both guitars
|--------------------------------------------------------------------|
|--------------------------------------------------------------------|
|-------------------4-2----------------------------------------------|
|-------5---5-2---2-5-3----------------------------------------------|
|-2---2-3-3-3-3-3-3--------------------------------------------------|
|-0-0-0--------------------------------------------------------------|
    .     .     .   " "

Solo rhythm uses same stuff as Riff C, only played slightly different.

Riff D
|--------------------------------------------------------------------|
|--------------------------------------------------------------------|
|--------------------------------------------------------------------|guit
|-2---2-4-5-4-2-2---4-5-4-2-2-----2-4-5-4-2-1-2-4-2-4-5--------------| II
|---2-------------3-----------0-0------------------------------------|
|--------------------------------------------------------------------|

Riff E
|--------------------------------------------------------------------|
|--------------------------------------------------------------------|
|--------------------------------------------------------------------|
|---------------------------------------------------------2----------|
|-------2---1p0-------2---1p0-------2---1p0---2---3---5--------------|
|-0-000---0-----0-000---0-----0-000---0-----0---0---0---0------------|
  .    .     .    .     .    .     .   .   .   .

Riff F
|--------------------------------------------------------------------|
|--------------------------------------------------------------------|
|--------------------------------------------------------------------|
|-2-2\1/2----4-4\3/4-------------------------------------------------|
|-3-3\2/3----5-5\4/5-------------------------------------------------|
|--------------------------------------------------------------------|

Near the end the solo is repeated. On the album it's three guitars. One plays
the rhythm, the other plays the regular solo and a third plays the solo in
harmony one octave higher.
End on high pitch note. Just use the last chord of the rhythm.

Check Out Death8699.com, With More Transcriptions On It:
 http://www.death8699.com

  Visit MetalTabs.com for more metal tablature

bottom separator

Contact Us | Privacy Policy | Disclaimer | Legal Notice
Copyright © 2001-2014 MetalTabs.com. All Rights Reserved.