top separator

Home

Forum

What's New

Submit a Tab

FAQ

Links

Contact Us

Link to Us

MetalTabs.com logo

Bands

0-9

A

B

C

D

E

F

G

H

I

J

K

L

M

N

O

P

Q

R

S

T

U

V

W

X

Y

Z

Search

What

Where
 

Whiplash - "Power Thrashing Death" Guitar Tab

Plain Text Version
More Whiplash Tabs

Hits: 5957
Rated: 1.00 out of 5 (1 vote)
Updated: 2003-03-09 10:48:41

 

By:

Kramer

sendpm.gif

email.gif

Important note
We did our best to reach Whiplash and ask for their permission to publish this tab. Unfortunately they did not respond to our requests or we could not find a way to contact them. This tab is available online until Whiplash tells us to take it down.


#----------------------------------PLEASE NOTE---------------------------------#
#This file is the author's own work and represents their interpretation of the #
#song. You may only use this file for private study, scholarship, or research. #
#Unless specified otherwise, this is NOT an official tab from the band members.#
#------------------------------------------------------------------------------#

  Visit MetalTabs.com for more metal tablature
  
Whiplash "Power Thrashing Death" from POWER AND PAIN (1985)

Tabbed by Nick S. If you have any questions, send me an
E-mail Pantera9560@aol.com w/ the subj. "Whiplash tabs"

Riff 1
E-------------5p0h5p0--------------------------------------
B----------------------5p0h5p0-----------------------------
G----------------------------------------------------------
D-5-----5-5-5-------------------5-----5-5-5----------------
A-3-333-3-3-3-------------------3-333-3-3-3--6-4-6-8-6-8---
E--------------------------------------------4-2-4-6-4-6---
About the really fast hammer-on/pull-off thing: Just so you know, you'll
probably never see any insane crap like that from me again. I was lucky this
time.

Riff 2A
G-------------------------7-6-7-6-7---
D-5-----------------------5-4-5-4-5---
A-3-------6-------8-------------------
E---------4-------6-------------------

Riff 2B
D-5-------------------------------------
A-3-------6-------8-------5-4-5-4-5-4---
E---------4-------6-------3-2-3-2-3-2---

Riff 3
G----2--3--5--3--2----------
D-5--0--1--3--1--0----------
A-3-----------------5-------
E-------------------3-------

Riff 4A
D-5--5-5--5-5--5-5---3/5---5-5--5-5--5-5----
A-3--3-3--3-3--3-3---1/3---3-3--3-3--3-3----

Riff 4B
A-5--5-5--5-5--5-5---3/5---5-5--5-5--5-5----
E-3--3-3--3-3--3-3---1/3---3-3--3-3--3-3----

Riff 4C
A-3--3-3--3-3--3-3---3-3---3-3--3-3--3-3----
E-1--1-1--1-1--1-1---1-1---1-1--1-1--1-1----

Riff 4C ending
D-4--2--2--4--5--4--------
A-2--0--0--2--3--2----5---
E---------------------3--- (Let G5 ring)

Riff 5/Ending
G-7-------5-----------
D-5-------3------8----
A----------------6---- then strum D5 chord a lot, let it ring,
then strum C5 chord a lot, let it ring then slide C5 chord.

Song order:

Riff 1 8x
Riff 2A 4x
Riff 1 6x
Riff 2A 4x
Riff 3 once
Riff 4A twice
Riff 4B twice
Riff 4C twice w/ 4C ending after second time
Riff 2B 3x then play first part of the riff once
Riff 1 6x
Riff 2A 4x
Riff 5/ending

R.I.P. Tony Bono

  Visit MetalTabs.com for more metal tablature

bottom separator

Contact Us | Privacy Policy | Disclaimer | Legal Notice
Copyright © 2001-2014 MetalTabs.com. All Rights Reserved.