top separator

Home

Forum

What's New

Submit a Tab

FAQ

Links

Contact Us

Link to Us

MetalTabs.com logo

Bands

0-9

A

B

C

D

E

F

G

H

I

J

K

L

M

N

O

P

Q

R

S

T

U

V

W

X

Y

Z

Search

What

Where
 

Whiplash - "Last Man Alive" Guitar Tab

Plain Text Version
More Whiplash Tabs

Hits: 4271
Rated: 3.00 out of 5 (2 votes)
Updated: 2003-07-30 14:19:39

 

By:

Kramer

sendpm.gif

email.gif

Important note
We did our best to reach Whiplash and ask for their permission to publish this tab. Unfortunately they did not respond to our requests or we could not find a way to contact them. This tab is available online until Whiplash tells us to take it down.


#----------------------------------PLEASE NOTE---------------------------------#
#This file is the author's own work and represents their interpretation of the #
#song. You may only use this file for private study, scholarship, or research. #
#Unless specified otherwise, this is NOT an official tab from the band members.#
#------------------------------------------------------------------------------#

  Visit MetalTabs.com for more metal tablature
  
Whiplash "Last Man Alive" from POWER AND PAIN (1985)

Tabbed by Kramer
E-mail: Pantera9560@aol.com

R.I.P. Tony Bono

Tuned down a half step

Riff 1A
Gb--------------------------------------------------------------------7--6---
Db------9-9-7h9-----5--4--5--4----------------9-9-7h9-----5--4--5--4--5--4---
Ab------7-7-7-7-----3--2--3--2--5--4----------7-7-7-7-----3--2--3--2---------
Eb-000--------------------------3--2-----000---------------------------------
       (twice)          (once)                (twice)           (once)

Riff 1B
Gb--------------------------------------------------------------------7--6---
Db------9-9-7h9-----5--4--5--4----------------9-9-7h9-----5--4--5--7--5--4---
Ab------7-7-7-7-----3--2--3--2--5--4----------7-7-7-7-----3--2--3--5---------
Eb-000--------------------------3--2-----000---------------------------------
       (twice)         (once)                (twice)          (once)

Riff 2
Db-5-5-5-5-5-5-5-5-4-4-4-4-4-4-4-4---9--7--9---
Ab-3-3-3-3-3-3-3-3-2-2-2-2-2-2-2-2---7--5--7---

Riff 2 ending 1
Db-5-5-5-5-5-5-5-5---4-4-4-4-4--
Ab-3-3-3-3-3-3-3-3---2-2-2-2-2--

Riff 2 ending 2
Db-5-5-5-5-5-5-5-5---4-4-4-4-4---4-4-4-4-4-4-4-4---5-5-5-5-5---
Ab-3-3-3-3-3-3-3-3---2-2-2-2-2---2-2-2-2-2-2-2-2---3-3-3-3-3---

Song ending
Gb--------------------
Db-4-4-4-4-----4------
Ab-2-2-2-2-----2--2---
Eb----------------0---

Song order:

Riff 1A 4x
Riff 2 3x then ending 1
Riff 1A 3x
Riff 2 3x then ending 1
Riff 1B 5x
Riff 1A 4x
Riff 2 3x then ending 1 once
Riff 2 3x then ending 2 twice
Song ending

  Visit MetalTabs.com for more metal tablature

bottom separator

Contact Us | Privacy Policy | Disclaimer | Legal Notice
Copyright © 2001-2014 MetalTabs.com. All Rights Reserved.