top separator

Home

Forum

What's New

Submit a Tab

FAQ

Links

Contact Us

Link to Us

MuSpy.com

MetalTabs.com logo

Bands

0-9

A

B

C

D

E

F

G

H

I

J

K

L

M

N

O

P

Q

R

S

T

U

V

W

X

Y

Z

Search

What

Where
 

Whiplash - "Stirring The Cauldron" Guitar Tab

Plain Text Version
More Whiplash Tabs

Hits: 3318
Rated: 4.00 out of 5 (1 vote)
Updated: 2003-06-01 10:10:26

 

By:

Kramer

sendpm.gif

email.gif

Important note
We did our best to reach Whiplash and ask for their permission to publish this tab. Unfortunately they did not respond to our requests or we could not find a way to contact them. This tab is available online until Whiplash tells us to take it down.


#----------------------------------PLEASE NOTE---------------------------------#
#This file is the author's own work and represents their interpretation of the #
#song. You may only use this file for private study, scholarship, or research. #
#Unless specified otherwise, this is NOT an official tab from the band members.#
#------------------------------------------------------------------------------#

  Visit MetalTabs.com for more metal tablature
  
Whiplash "Stirring the Cauldron" from POWER AND PAIN (1985)

Tabbed by Kramer

My original tab for this song was decent, but I was able to correct the mistakes I made
so this new version of the tab is near perfect. Enjoy!

Tuned down a half step

Start by playing palm-muted open Eb string (alternate picking) then
Db-----------------4-------------------5--4--5--4--
Ab-----------------2-------------------3--2--3--2--
Eb-0-0-0-0-0-0-0-0---0-0-0-0-0-0-0-0-0-------------

Riff 1 once
Db---------------------------------5--4--5--4--------------------------------------5--4--
Ab---------------------------------3--2--3--2--------------------------------5--4--3--2--
Eb-0-0-0-0-0-0-0-0-0-0-0-0-0-0-0-0------------0-0-0-0-0-0-0-0-0-0-0-0-0-0-0--3--2--------

Riff 2 once
Gb---------------------------------7-6-7-6-----------------------------------7-6-5-4--
Db---------------------------------5-4-5-4--4-4-4-4-4-4-4-4-4-4-4-4-4-4-4-4--5-4-3-2--
Ab-2-2-2-2-2-2-2-2-2-2-2-2-2-2-2-2----------2-2-2-2-2-2-2-2-2-2-2-2-2-2-2-2-----------

Riff 1 twice
Riff 2 twice
Riff 1 twice

Riff 3 once
Db-9---7---5---7--------7---5------
Ab-7---5---3---5--------5---3---5--
Eb------------------------------3--

Riff 3 ending 1 twice
Db----------------------------------5--4---
Ab----------------------------------3--2---
Eb-0-0-0-0-0-0-0-0-0-0-0-0-0-0-0-0---------

Riff 3 once

Riff 4 twice
Db-------------------------4-------------------------5-4--------------------------4--
Ab-------------------------2-------------------------3-2--------------------------2--
Eb-0-0-0-0-0-0-0-0-0-0-0-0---0-0-0-0-0-0-0-0-0-0-0-0-----0-0-0-0-0-0-0-0-0-0-0-0-----

Db--------------------------------2---
Ab--------------------------5--5--0---
Gb-0-0-0-0-0-0-0-0-0-0-0-0--3--3------

Riff 5 twice
Gb--------------------------2-----2-2----------------------------------------------------
Db-5-----5-5---4------4-4---0-----0-0--5-------------------------------------------------
Ab-3-----3-3---2------2-2--------------3-------------------------------------------------
Eb------------------------------------------0-0-0-0-0-0-0-0-0-0-0-0-0-0-0-0-0-0-0-0-0-0-0

Riff 5 ending
Gb-2---5---7---10/
Db-2---5---7---10/

Play the beginning
Riff 1 once
Riff 2 once
Riff 1 twice
Riff 2 twice
Riff 1 twice
Riff 3 once w/ ending 1 twice
Riff 3 once

Riff 3 ending 2
Db---------------------------------5--4-----------------------------------------2--
Ab---------------------------------3--2-----------------------------------5--5--0--
Eb-0-0-0-0-0-0-0-0-0-0-0-0-0-0-0-0-------0-0-0-0-0-0-0-0-0-0-0-0-0-0-0-0--3--3-----

Riff 5 twice

Riff 6 once
Db-5-5-5-5-5-5--------------4-4-4-4-4-4-4-4----
Ab-3-3-3-3-3-3--------------2-2-2-2-2-2-2-2----

Then play
Db-5-------4-4-4-4-4-4-4-4-4--5-5-5-5-5-5--7-7-7-7-7-7--------------
Ab-3-------2-2-2-2-2-2-2-2-2--3-3-3-3-3-3--5-5-5-5-5-5---2----------
Eb-------------------------------------------------------0----------
let the last chord ring a little bit then end w/

Db-4-----5--4--5--4---------------------------------------------------
Ab-2-----3--2--3--2-----2-----------------------------------------2---
Eb----------------------0-(let the chord ring a little bit)-------0---

R.I.P. Tony Bono

Any questions, feedback blah blah blah send me an E-mail Pantera9560@aol.com w/ the subj.
"Whiplash gtr. tabs." Do you think I should re-do my "Power Thrashing Death" & "Last Man
Alive" tabs? I think my tabs for those songs were accurate but I want a second opinion.

  Visit MetalTabs.com for more metal tablature

bottom separator

Contact Us | Privacy Policy | Disclaimer | Legal Notice
Copyright © 2001-2014 MetalTabs.com. All Rights Reserved.