top separator

Home

Forum

What's New

Submit a Tab

FAQ

Links

Contact Us

Link to Us

MetalTabs.com logo

Bands

0-9

A

B

C

D

E

F

G

H

I

J

K

L

M

N

O

P

Q

R

S

T

U

V

W

X

Y

Z

Search

What

Where
 

Whiplash - "Spit On Your Grave" Guitar Tab

Plain Text Version
More Whiplash Tabs

Hits: 5094
Rated: 5.00 out of 5 (1 vote)
Updated: 2003-06-01 10:12:11

 

By:

Kramer

sendpm.gif

email.gif

Important note
We did our best to reach Whiplash and ask for their permission to publish this tab. Unfortunately they did not respond to our requests or we could not find a way to contact them. This tab is available online until Whiplash tells us to take it down.


#----------------------------------PLEASE NOTE---------------------------------#
#This file is the author's own work and represents their interpretation of the #
#song. You may only use this file for private study, scholarship, or research. #
#Unless specified otherwise, this is NOT an official tab from the band members.#
#------------------------------------------------------------------------------#

  Visit MetalTabs.com for more metal tablature
  
Whiplash "Spit on Your Grave" from POWER AND PAIN (1985)

Tabbed by Kramer

OK my original tab for this song sucked big time, luckily I was able to fix it and this
new version of the tab is near perfect. Enjoy!

Tuned down a half step

Start by playing
Db----2-----5-4-2--5-4-2--5-4-2---
Ab-4--0--4--3-2-0--3-2-0--3-2-0---
Eb-2-----2------------------------

Riff 1 4x
Db------------2-----5-4-2---------------5-4-2--5-4-2---
Ab------------0--4--3-2-0---------------3-2-0--3-2-0---
Eb-222222222-----2-----------222222222-----------------

Riff 2 3x
Gb-------4---7----------2-----2-----2-----2---
Db-5-----4---7----------2-----2-----2-----2---
Ab-3------------------------------------------
Eb------------------222---222---222---222-----

Riff 2 ending
Db-5------7---
Ab-3------5---

Riff 1 3x
Riff 2 3x then ending

Riff 3 4x
Db---------------------------------------5------5-5------5--4------4--4--5--7---
Ab-4------4-4------4-4------4-4------4---3-333--3-3-333--3--2-222--2--2--3--5---
Eb-2-222--2-2-222--2-2-222--2-2-222--2------------------------------------------

2nd solo - I still haven't figured it out but like I said last time, if you can't make up
a solo, make up a really crappy solo.

After the second solo play
Db-5-4-2--5-4-2--
Ab-3-2-0--3-2-0--

Riff 1 twice
Riff 2 3x then ending

Riff 4 3x
Db-----------5------
Ab-4---------3------
Eb-2----------------
then play F5 let it ring then strum B5 chord then play

Db----2-----5-4-2--5-4-2------
Ab-4--0--4--3-2-0--3-2-0---4--
Eb-2-----2-----------------2--

R.I.P. Tony Bono

Any questions, feedback blah blah blah send me an E-mail Pantera9560@aol.com w/ the subj.
"Whiplash gtr. tabs." Also do you think I should re-do my "Power Thrashing Death" and
"Last Man Alive"? I think my tabs for those songs were accurate but I want a second
opinion.

  Visit MetalTabs.com for more metal tablature

bottom separator

Contact Us | Privacy Policy | Disclaimer | Legal Notice
Copyright © 2001-2014 MetalTabs.com. All Rights Reserved.