top separator

Home

Forum

What's New

Submit a Tab

FAQ

Links

Contact Us

Link to Us

MetalTabs.com logo

Bands

0-9

A

B

C

D

E

F

G

H

I

J

K

L

M

N

O

P

Q

R

S

T

U

V

W

X

Y

Z

Search

What

Where
 

My Dying Bride - "Christliar" Guitar Tab

Plain Text Version
More My Dying Bride Tabs

Hits: 4176
Updated: 2003-03-09 10:38:34

 

Important note
This tab is available online because we obtained explicit permission from My Dying Bride or their label.


#----------------------------------PLEASE NOTE---------------------------------#
#This file is the author's own work and represents their interpretation of the #
#song. You may only use this file for private study, scholarship, or research. #
#Unless specified otherwise, this is NOT an official tab from the band members.#
#------------------------------------------------------------------------------#

  Visit MetalTabs.com for more metal tablature
  
Christliar
Tuning 1 1/2 step down: Db Gb Cb Fb B Db

Riff 1 (Intro)
|---------------------------------|
|---------------------------------|
|---------------------------------|
|-2-9-5-4-2-4-5-4-2-9-5-4-2-4-(5)-|
|-2-7-3-2-0-2-3-2-2-7-3-2-0-2-(3)-|
|-0---------------0---------------|
pm                        . .  .(first time only)

Riff 2
|--------------------------------------------------------------
|--------------------------------------------------------------
|--------------------------------------------------------------
|----------------------------------------------5-7-(5)---------
|-5-7-8---------------------------------5-7-8----------(7)-7-7-
|-------8-7-6-(5)-5-5-3/5-(5)-5-5/7-(8)------------------------

-----------------|
-----------------|
-----------------|
-----------------|
-----------------|
-7\3-(3)-3-(5)-5-|
-----------------|

Piano Interlude (arranged for guitar)
At the end of Riff 2
|-------------| |Here comes the piano part----|
|-------------| |-----------------------------|
|-------------| |---(7)----(10)---(5)---------|
|-------5-7-5-| |---(7)----(10)---(5)-5-4-2-5-|
|-5-7-8-------| |---(5)----(8)----(3)-3-2-0-3-|
|-------------| |---clean-sound-----

Riff 3
|Gtr.1------------------------------------|
|-----------------------------------------|
|-----------------------------------------|
|-9-9----10\--------9\--------7-5-4-2-(5)-|
|-7-7-/7-----5-5-/5----3-3-/3---3-2-0-(3)-|
|-0-0-------------------------------------|
pm                              . . .  .

|Gtr.2-----------------------------------------|
|----------------------------------------------|
|----------------------------------------------|
|------------------------------------5-4-2-(5)-|
|-7/9-9/10-10~-5/7-7/9-9~-3/5-5/7-7~-3-2-0-(3)-|
|----------------------------------------------|
pm                                   . . .  .

Riff 4
|-------------------------------------------------------------------|
|-------------------------------------------------------------------|
|-------------------------------------------------------------------|
|-2-9-10-15\------------------15\-2-9-10-15\------------------------|
|-2-7-8--15\------------------15\-2-7-8--15\------------------------|
|-0------15\-5-5-7-8-7-5-3-3~-15\-0------15\-5-5-7-8-7-5-3-8-7-5-3-2|

Riff 5 (bass arranged for guitar)
|-------------------------------------------------|
|-------------------------------------------------|
|-------------------------------------------------|
|-----5-----5-----5-----5-----2-----2-----2-----2-|
|---2-----2-----2-----2-----3-----3-----3-----3---|
|-0-----0-----0-----0-----0-----0-----0-----0-----|

Riff 6
|-------------------------------------------------|
|-------------------------------------------------|
|-------------------------------------------------|
|-----5-----5-----5-----5-----2-----2-----2-----2-|
|---2-----2-----2-----2-----3-----3-----3-----3---|
|-0-----0-----0-----0-----0-----0-----0-----0-----|
Note that the guitar part changes the rhythm.

Riff 7
|play-4x|play-4x-|---------------|-----|---------------------------|
|-------|--------|---------------|-----|---------------------------|
|-5-----|-10-----|-9-----9-----9-|---7-|---9-----9-----9-----9-----|
|-5-----|-10-----|-9-----9-----9-|---7-|---9-----9-----9-----9-----|
|-3-3-3-|-8--8-8-|-7-7-7-7-7-7-7-|-5-5-|-7-7-7-7-7-7-7-7-7-7-7-7-7-|
|-------|--------|---------------|-----|---------------------------|
pm  . .      . .     . .   . .     .     .   . .   . .   . .   . .

Riff 8
|--6x-|--6x--|--4x-|---------|--6x-|
|-----|------|-----|---------|-----|
|-----|------|-----|---------|-----|
|---5-|---10-|---9-|-----7---|---9-|
|-3---|-8----|-7---|-7-5---5-|-7---|
|-----|------|-----|---------|-----|

Riff 9 (the end (at last))
|---------------------|
|---------------------|
|---------------------|
|-15\---------10------|
|-15\-3~-3-/8----8~-7-|
|-15\-----------------|
fade-out            .

  Visit MetalTabs.com for more metal tablature

bottom separator

Contact Us | Privacy Policy | Disclaimer | Legal Notice
Copyright © 2001-2014 MetalTabs.com. All Rights Reserved.