top separator

Home

Forum

What's New

Submit a Tab

FAQ

Links

Contact Us

Link to Us

MetalTabs.com logo

Bands

0-9

A

B

C

D

E

F

G

H

I

J

K

L

M

N

O

P

Q

R

S

T

U

V

W

X

Y

Z

Search

What

Where
 

Cancer - "Back From The Dead" Guitar Tab

Plain Text Version
More Cancer Tabs

Hits: 6965
Rated: 3.14 out of 5 (7 votes)
Updated: 2003-03-09 10:32:51

 

By:

INVERTED

sendpm.gif

email.gif

Important note
We did our best to reach Cancer and ask for their permission to publish this tab. Unfortunately they did not respond to our requests or we could not find a way to contact them. This tab is available online until Cancer tells us to take it down.


#----------------------------------PLEASE NOTE---------------------------------#
#This file is the author's own work and represents their interpretation of the #
#song. You may only use this file for private study, scholarship, or research. #
#Unless specified otherwise, this is NOT an official tab from the band members.#
#------------------------------------------------------------------------------#

  Visit MetalTabs.com for more metal tablature
  
                               CANCER - BACK FROM THE DEAD
                            From the Album - DEATH SHALL RISE
                            Copyright - RESTLESS RECORDDS 1991
                                  Version 1.0 Nov, 2002


Transcribed by: James Williams (Inverted)

For Questions, Comments, Newest Version, or Corrections contact
Inverted: at Inverted_one@hotmail.com

Check Out Death8699.com or Metaltabs.com for More Transcriptions:
http://www.Death8699.com http://www.Metaltabs.com

.  - palm mute           /  - slide up to
\  - slide down to       ~  - vibrato
h  - hammer on           b  - bend
p  - pull off            Suffixes for bend ^
ph - pinched harmonic     f - full bend    h - half bend
*  - see comment          r - release      t - tap bend
X  - Stuccatto            ~ - vibrato bend q - quarter bend
,  - slight palm mute    () - ghost note, sustained note
"  - Tromolo note        <> - Trill

Tuning: "D"G"C"F"A"D"


Riff 1-A                      Gtr I
|----------------------------------|
|------------------4h5p4-----------|
|-------5--4--------------4--5-----|
|--2------------2---------------3~-|
|----------------------------------|
|----------------------------------|

                             Gtr II
|----------------------------------|
|----------------------------------|
|----------------------------------|
|----------------------------------|
|--7-------------------------------|
|--0-------------------------------|


Riff 1-B
|----------------------------------|
|----------------------------------|
|----------------------------------|
|-------5--4-------1h2p1--4--5-----|
|--2----3--2--------------2--3--3--|
|--0------------0---------------1--|
                .

Riff 2
|------------------------------------------------------------|
|------------------------------------------------------------|
|------------------------------------------------------------|
|------------------------------1------1-------------------7--|
|--4------4------3------3------3--333-3--333-6---------6-----|
|--2--222-2--222-1--111-1--111---------------4--444-4--------|
      ...    ...    ...    ...    ...    ...    ... .  .

Riff 3-A
|-----------------------------------------------------------|
|-----------------------------------------------------------|
|-----------------------------------------------------------|
|--4-----------5-----------4-----------2-----------------1--|
|--4-----------3-----------4-----------2--------------2-----|
|--2-----------3-----------2-----------0-----------4--------|
                                                   .  .

Riff 3-B
|-----------------------------------------------------------|
|-----------------------------------------------------------|
|-----------------------------------------------------------|
|--4-----------5-----------4-----------2-----------------1--|
|--4-----------3-----------4--------3--2--------------2-----|
|--2-----------3-----------2-----------0-----------4--------|
                                                   .  .

Riff 4
|-----------------------------------------------------------------------|
|-----------------------------------------------------------------------|
|------------------------------------------------------2h3p2-----3h4p3--|
|--------------------------4-4-4-4--------------------------------------|
|--2-2-2-2-2-2-2-2-3-3-3-3-2-2-2-2-2-2-2-2-2-2-2-2----------------------|
|--0-0-0-0-0-0-0-0-1-1-1-1---------0-0-0-0-0-0-0-0-0-0-------0-0--------|
   . . . . . . . . . . . . . . . . . . . . . . . . . .       . .

Solo                                                           x2
|----------------------------------------------------------------|
|----------------------------------------------------------------|
|------------------------7---------------------------------------|
|-------------------9-10---10-9h10p9-----------10-------10-9-----|
|--7\9~-------10------------------------9----------7---------10--|
|----------------------------------------------------------------|


|----------------------------------------------------------------
|-----------------------------------------12--11-----------------
|-11--10----------11--10----------11--10----------11--10---------
|---------11--10----------11--10--------------------------11--10-
|----------------------------------------------------------------
|----------------------------------------------------------------

                                             x2
-----------------------------------------------|
--------------------------------------12-------|
--11--10----------11--10-----------------------|
----------11--10----------11--10---------------|
----------------------------------7------9~----|
-----------------------------------------------|


Riff 5                                               x2
|------------------------------------------------------|
|------------------------------------------------------|
|------------------------------------------------------|
|----------------------------------5-------------------|
|----4---------5---------4---------3---2------3--2-----|
|----2---------3---------2-------------0------------3--|


Riff 6                                                      x2
|-------------------------------------------------------------|
|-------------------------------------------------------------|
|-------------------------------------------------------------|
|-------------------------------------------------------------|
|-------------------------------------------------------2-----|
|--2-2-2-2-2-2-2-2-3-3-3-3-3-3-3-3-2-2-2-2-2-2-2-2--0-----2---|
   . . . . . . . . . . . . . . . . . . . . . . . .

End
|-----------|
|-----------|
|-----------|
|-----------|
|--2--------|
|--0--------|


Check out my other tabs by: Deicide, Obituary, Hypocrisy,
Grave, Catastrophic, Six Feet Under, Incantation, Death,
Cannibal Corpse Broken Hope and Cancer.

  Visit MetalTabs.com for more metal tablature

bottom separator

Contact Us | Privacy Policy | Disclaimer | Legal Notice
Copyright © 2001-2014 MetalTabs.com. All Rights Reserved.