top separator

Home

Forum

What's New

Submit a Tab

FAQ

Links

Contact Us

Link to Us

MetalTabs.com logo

Bands

0-9

A

B

C

D

E

F

G

H

I

J

K

L

M

N

O

P

Q

R

S

T

U

V

W

X

Y

Z

Search

What

Where
 

Hades Almighty - "The Red Sun Mocks My Sadness" Guitar Tab

Plain Text Version
More Hades Almighty Tabs

Hits: 4218
Rated: 5.00 out of 5 (1 vote)
Updated: 2003-03-03 15:19:02

 

By:

Darkenelf

sendpm.gif

email.gif

Important note
This tab is available online because we obtained explicit permission from Hades Almighty or their label.


#----------------------------------PLEASE NOTE---------------------------------#
#This file is the author's own work and represents their interpretation of the #
#song. You may only use this file for private study, scholarship, or research. #
#Unless specified otherwise, this is NOT an official tab from the band members.#
#------------------------------------------------------------------------------#

  Visit MetalTabs.com for more metal tablature
  
Band: Hades Almighty
Album: The Dawn of the Dying Sun
Song:The red sun mocks my sadness
Tabbed by: Martijn Wietsma
Email: dalvanian@yahoo.com
Date: 10-11-2002

Tune down to D#

Riff A
|--------------------------------------------------------|
|--------------------------------------------------------|
|---6--4-2---------------6--4/6-8------------------------|
|-6---------6-4-6-----6------------6---------------------|
|--------------------------------------------------------|
|--------------------------------------------------------|

|--------------------------------------------------------|
|--------------------------------------------------------|
|---6--4-2----------------------8-8-9-8-6----------------|
|-6--------/6-4-6-----7-\6-4-6---------------------------|
|--------------------------------------------------------|
|--------------------------------------------------------|

|--------------------------------------------------------|
|--------------------------------------------------------|
|---6--4-2---------------6--4/6-8------------------------|
|-6---------6-4-6-----6------------6---------------------|
|--------------------------------------------------------|
|--------------------------------------------------------|

|--------------------------------------------------------|
|--------------------------------------------------------|
|---6--4-2----------------------8-8-9-8-6----------------|
|-6--------/6-4-6-----7-\6-4-6---------------------------|
|--------------------------------------------------------|
|--------------------------------------------------------|

|--------------------------------------------------------|
|--------------------------------------------------------|
|---6--4-2---------------6--4/6-8------------------------|
|-6---------6-4-6-----6------------6---------------------|
|--------------------------------------------------------|
|--------------------------------------------------------|

|--------------------------------------------------------|
|--------------------------------------------------------|
|---6--4-2----------------------8-8-9-8-6----------------|
|-6--------/6-4-6-----7-\6-4-6---------------------------|
|--------------------------------------------------------|
|--------------------------------------------------------|

Riff B
|--------------------------------------------------------|
|--------------------------------------------------------|
|---6-6--9-8--6-4-6--4\1-----6-6--9-8--6\4-1-------------|
|-6------------------------------------------------------|
|--------------------------------------------------------|
|--------------------------------------------------------|

|--------------------------------------------------------|
|--------------------------------------------------------|
|-/6-6--9-8--6\4-1-----6-6--9-8--6-4-6-------------------|
|---------------------------------------6-6-2-2-4-4-7-6--|
|--------------------------------------------------------|
|--------------------------------------------------------|

|--------------------------------------------------------|
|--------------------------------------------------------|
|---6-6--9-8--6-4-6--4\1-----6-6--9-8--6\4-1-------------|
|-6------------------------------------------------------|
|--------------------------------------------------------|
|--------------------------------------------------------|

|--------------------------------------------------------|
|--------------------------------------------------------|
|-/6-6--9-8--6\4-1-----6-6--9-8--6-4-6-------------------|
|---------------------------------------6-6-2-2-4-4-7-6--|
|--------------------------------------------------------|
|--------------------------------------------------------|

Riff A
|--------------------------------------------------------|
|--------------------------------------------------------|
|---6--4-2---------------6--4/6-8------------------------|
|-6---------6-4-6-----6------------6---------------------|
|--------------------------------------------------------|
|--------------------------------------------------------|

  Visit MetalTabs.com for more metal tablature

bottom separator

Contact Us | Privacy Policy | Disclaimer | Legal Notice
Copyright © 2001-2014 MetalTabs.com. All Rights Reserved.