top separator

Home

Forum

What's New

Submit a Tab

FAQ

Links

Contact Us

Link to Us

MetalTabs.com logo

Bands

0-9

A

B

C

D

E

F

G

H

I

J

K

L

M

N

O

P

Q

R

S

T

U

V

W

X

Y

Z

Search

What

Where
 

Hades Almighty - "The Dawn Of The Dying Sun" Guitar Tab

Plain Text Version
More Hades Almighty Tabs

Hits: 4965
Rated: 5.00 out of 5 (2 votes)
Updated: 2003-03-03 15:18:21

 

By:

Darkenelf

sendpm.gif

email.gif

Important note
This tab is available online because we obtained explicit permission from Hades Almighty or their label.


#----------------------------------PLEASE NOTE---------------------------------#
#This file is the author's own work and represents their interpretation of the #
#song. You may only use this file for private study, scholarship, or research. #
#Unless specified otherwise, this is NOT an official tab from the band members.#
#------------------------------------------------------------------------------#

  Visit MetalTabs.com for more metal tablature
  
Band: Hades Almighty
Album: The Dawn of the Dying Sun
Song: The Dawn of the Dying Sun
Tabbed by: Martijn Wietsma
Email: dalvanian@yahoo.com
Date: 9-11-2002

Tune down to D#

Riff A (intro) palm muted.
|--------------------------------------------------------|
|--------------------------------------------------------|
|--------------------------------------------------------|
|--------------------------------------------------------|
|-3-3-3-3-3-3-3-3----3-----------------------------------|
|-1-1-1-1-1-1-1-1----1-----------------------------------|
  x x x x x x x x

Riff B
|-1-1-1-------1-1-1-------1-1-1--------1-1-1-------------|
|-------4-1---------4-1----------4-1----------4-1--------|
|--------------------------------------------------------|
|--------------------------------------------------------|
|--------------------------------------------------------|
|--------------------------------------------------------|

Riff C
|--------------------------------------------------------|
|--------------------------------------------------------|
|--------------------------------------------------------|
|--------------------------------------------------------|
|-6\4--6\4-----------------------------------------------|
|-4\2--4\2-----------------------------------------------|

Riff D
|----1-1-1-----------------------------------------------|
|----------4-1-------------------------------------------|
|--------------------------------------------------------|
|--------------------------------------------------------|
|-3-------------6\4--6\4---------------------------------|
|-1-------------4\2--4\2---------------------------------|
							(16x)

Riff E
|--------------------------------------------------------|
|--------------------------------------------------------|
|--------------------------------------------------------|
|------3/5/6--6-5-5---------3/5/6--6/8-8-----------------|
|-3-3--1/3/4--4-3-3----3-3--1/3/4--4/6-6-----------------|
|-1-1------------------1-1-------------------------------|
							(8x)

Riff D (till end of song)
|----1-1-1-----------------------------------------------|
|----------4-1-------------------------------------------|
|--------------------------------------------------------|
|--------------------------------------------------------|
|-3-------------6\4--6\4---------------------------------|
|-1-------------4\2--4\2---------------------------------|
							(16x)

  Visit MetalTabs.com for more metal tablature

bottom separator

Contact Us | Privacy Policy | Disclaimer | Legal Notice
Copyright © 2001-2014 MetalTabs.com. All Rights Reserved.