top separator

Home

Forum

What's New

Submit a Tab

FAQ

Links

Contact Us

Link to Us

MetalTabs.com logo

Bands

0-9

A

B

C

D

E

F

G

H

I

J

K

L

M

N

O

P

Q

R

S

T

U

V

W

X

Y

Z

Search

What

Where
 

Sodom - "Remember The Fallen" Guitar Tab

Plain Text Version
More Sodom Tabs

Hits: 12039
Rated: 3.71 out of 5 (14 votes)
Updated: 2003-02-15 17:04:55

 

Important note
This tab is available online because we obtained explicit permission from Sodom or their label.


#----------------------------------PLEASE NOTE---------------------------------#
#This file is the author's own work and represents their interpretation of the #
#song. You may only use this file for private study, scholarship, or research. #
#Unless specified otherwise, this is NOT an official tab from the band members.#
#------------------------------------------------------------------------------#

  Visit MetalTabs.com for more metal tablature
  
Artist: Sodom
Song Title: Remember The Fallen
Album: Agent Orange

Tabbed by: Ryan Klubeck <scfreak33@hotmail.com>

Standard Tuning (E-A-D-G-B-e)

This is almost 100% correct. I didn't include the solos, but you can
shred away with your own licks, right?

Intro
e|-------------------------|-------------------------|
B|-------------------------|-------------------------|
G|-----------/5p4---4~---2-|-----------/5p4---4~---2-|
D|----------------5----5---|----------------5----5---|
A|-2---(2)-----------------|-2---(2)-----------------|
E|-0---(0)-----------------|-0---(0)-----------------|

e|-------------------------|-------------------------|
B|-------------------------|-------------------------|
G|-----------/5p4---4~---2-|-----------/5p4---4~---2-|
D|----------------5----5---|-3---(3)--------5----5---|
A|-2---(2)-----------------|-3---(3)-----------------|
E|-0---(0)-----------------|-1---(1)-----------------|

e|-------------------------|
B|-------------------------|
G|-----------/5p4---4~---2-|
D|-3---(3)--------5----5---|
A|-3---(3)-----------------|
E|-1---(1)-----------------|

Riff A
e|--------------------------------|--------------------------------|
B|--------------------------------|--------------------------------|
G|--------------------------------|--------------------------------|
D|--------------------------------|-----------------3-3--3--5-5--5-|
A|-2-------2-------2--------------|-2-------2-------3-3--3--5-5--5-|
E|-0--0-0--0--0-0--0--0-0--3~-0-5-|----0-0--0--0-0--1-1--1--3-3--3-|
pm    . .     . .     . .     .        . .     . .  . .     . .

Riff B
e|------------------------------|--------------------------------|
B|------------------------------|--------------------------------|
G|----------------------------7-|--------------------------------|
D|-4-------4-------4-------4--7-|-7-------7-------5-5--5--7-7--7-|
A|-4-------4-------4-------4--5-|-7-------7-------5-5--5--7-7--7-|
E|-2--2-2--2--2-2--2--2-2--2----|-5--5-5--5--5-5--3-3--3--5-5--5-|
pm    . .     . .     . .            . .     . .  . .     . .

Riff C
e|---------------------------------|--------------------------------|
B|---------------------------------|--------------------------------|
G|---------------------------------|--------------------------------|
D|---------------------------------|--------------------------------|
A|---------------------------------|----------------2-2-222-4-4-444-|
E|-0-0-000-0-0-000-0-0-000-0-0-000-|1-1-111-1-1-111-3-3-333-5-5-555-|
pm . . ... . . ... . . ... . . ...  . . ... . . ... . . ... . . ...

e|---------------------------------|--------------------------------|
B|---------------------------------|--------------------------------|
G|---------------------------------|--------------------------------|
D|---------------------------------|--------------------------------|
A|---------------------------------|----------------2-2-222-1-1-111-|
E|-0-0-000-0-0-000-0-0-000-0-0-000-|1-1-111-1-1-111-3-3-333-2-2-222-|
pm . . ... . . ... . . ... . . ...  . . ... . . ... . . ... . . ...

                                 _____      _____
Riff D                          | 1.       | 2.
e|-------------------|-------------------|-----------|
B|-------------------|-------------------|-----------|
G|-------------------|-----------4---5---|--5---4----|
D|-------------------|-3---(3)---4---5---|--5---4----|
A|-2-------(2)-------|-3---(3)---2---3---|--3---2----|
E|-0-------(0)-------|-1---(1)-----------|-----------|

During the Cadenza, keep banging on the E5

The Order is:

Intro
Riff A 4x
Riff B 2x
Riff A 2x
Riff B 2x (Under solo)
Riff C 2x
Riff D 2x
Let E5 Ring
Riff A 4x
Riff B 2x
Riff A 2x
Riff B 2x (Under solo)
Riff C 2x
Riff D 2x
Cadenza

That's it! Have fun, Sodomizers!!

  Visit MetalTabs.com for more metal tablature

bottom separator

Contact Us | Privacy Policy | Disclaimer | Legal Notice
Copyright © 2001-2014 MetalTabs.com. All Rights Reserved.