top separator

Home

Forum

What's New

Submit a Tab

FAQ

Links

Contact Us

Link to Us

MetalTabs.com logo

Bands

0-9

A

B

C

D

E

F

G

H

I

J

K

L

M

N

O

P

Q

R

S

T

U

V

W

X

Y

Z

Search

What

Where
 

Darkthrone - "Transilvanian Hunger" Guitar Tab

Plain Text Version
More Darkthrone Tabs

Hits: 20311
Rated: 4.24 out of 5 (45 votes)
Updated: 2003-02-11 15:21:40

 

Important note
This tab is available online because we obtained explicit permission from Darkthrone or their label.


#----------------------------------PLEASE NOTE---------------------------------#
#This file is the author's own work and represents their interpretation of the #
#song. You may only use this file for private study, scholarship, or research. #
#Unless specified otherwise, this is NOT an official tab from the band members.#
#------------------------------------------------------------------------------#

  Visit MetalTabs.com for more metal tablature
  
Darkthrone
Transilvanian hunger
From the album "Transilvanian hunger"
Tabbed by: Pablo Toirán
send comments and corrections to: metalmadness22@hotmail.com
                                  pablete212001@yahoo.com.ar


note: all riffs are played with fast strumming
Riff 1:

E|-----------------------------------------------|
B|-----------------------------------------------|
G|-----------------------------------------------| repeat
D|-12----10-----9----10----10-----9----10-----9--|
A|--0-----0-----0-----0-----7-----7-----7-----7--|
E|-----------------------------------------------|



Riff 2:

E|-----------------------------------------------|
B|-----------------------------------------------|
G|-----------------------------------------------|
D|-7-----------8-----------7-----------9-----10--| repeat
A|-0-----------6-----------0-----------8------8--|
E|-----------------------------------------------|



Riff 3:

E|---------------------------|
B|---------------------------|
G|---------------------------| Repeat
D|---------------------------|
A|-2------------3------------|
E|-0------------1------------|


that's all!!!

  Visit MetalTabs.com for more metal tablature

bottom separator

Contact Us | Privacy Policy | Disclaimer | Legal Notice
Copyright © 2001-2014 MetalTabs.com. All Rights Reserved.