top separator

Home

Forum

What's New

Submit a Tab

FAQ

Links

Contact Us

Link to Us

MuSpy.com

MetalTabs.com logo

Bands

0-9

A

B

C

D

E

F

G

H

I

J

K

L

M

N

O

P

Q

R

S

T

U

V

W

X

Y

Z

Search

What

Where
 

Morgana Lefay - "To Isengard" Guitar Tab

Plain Text Version
More Morgana Lefay Tabs

Hits: 6905
Rated: 5.00 out of 5 (4 votes)
Updated: 2003-02-11 14:47:13

 

By:

Darkenelf

sendpm.gif

email.gif

Important note
This tab is available online because we obtained explicit permission from Morgana Lefay or their label.


#----------------------------------PLEASE NOTE---------------------------------#
#This file is the author's own work and represents their interpretation of the #
#song. You may only use this file for private study, scholarship, or research. #
#Unless specified otherwise, this is NOT an official tab from the band members.#
#------------------------------------------------------------------------------#

  Visit MetalTabs.com for more metal tablature
  
Band: Morgana Lefay
Album: Fata Morgana
Song: To Isengard
Tabbed by: Martijn Wietsma
Email: dalvanian@yahoo.com
date: 05-10-2002

Tune 1/2 step down from E (D#)

Riff A
|--------------------------------------------------------|
|--------------------------------------------------------|
|--------------------------------------------------------|
|--------------------------------------------------------|
|-6--------6/7---9-7-6-----6/7---11-9-7------------------|
|-4-0-0--0h4/5---7-5-4---0h4/5----9-7-5------------------|

Riff B
|--------------------------------------------------------|
|--------------------------------------------------------|
|--------------------------------------------------------|
|--------------------------------------------------------|
|-6--------6/7---9-7-6-----6/7---9-6-11-7----------------|
|-4-0-0--0h4/5---7-5-4---0h4/5---7-4--9-5----------------|

Riff A
|--------------------------------------------------------|
|--------------------------------------------------------|
|--------------------------------------------------------|
|--------------------------------------------------------|
|-6--------6/7---9-7-6-----6/7---11-9-7------------------|
|-4-0-0--0h4/5---7-5-4---0h4/5----9-7-5------------------|

Riff B
|--------------------------------------------------------|
|--------------------------------------------------------|
|--------------------------------------------------------|
|--------------------------------------------------------|
|-6--------6/7---9-7-6-----6/7---9-6-11-7----------------|
|-4-0-0--0h4/5---7-5-4---0h4/5---7-4--9-5----------------|

Riff A
|--------------------------------------------------------|
|--------------------------------------------------------|
|--------------------------------------------------------|
|--------------------------------------------------------|
|-6--------6/7---9-7-6-----6/7---11-9-7------------------|
|-4-0-0--0h4/5---7-5-4---0h4/5----9-7-5------------------|

Riff B
|--------------------------------------------------------|
|--------------------------------------------------------|
|--------------------------------------------------------|
|--------------------------------------------------------|
|-6--------6/7---9-7-6-----6/7---9-6-11-7-----6----------|
|-4-0-0--0h4/5---7-5-4---0h4/5---7-4--9-5-----4----------|

To Isengard!  	To Isengard!

Riff A
|--------------------------------------------------------|
|--------------------------------------------------------|
|--------------------------------------------------------|
|--------------------------------------------------------|
|-6--------6/7---9-7-6-----6/7---11-9-7------6-----------|
|-4-0-0--0h4/5---7-5-4---0h4/5----9-7-5------4-----------|

some lyrics

Riff A
|--------------------------------------------------------|
|--------------------------------------------------------|
|--------------------------------------------------------|
|--------------------------------------------------------|
|-6--------6/7---9-7-6-----6/7---11-9-7------------------|
|-4-0-0--0h4/5---7-5-4---0h4/5----9-7-5------------------|

Riff C (only part of the song, im not sure about)
|--------------------------------------------------------|
|--------------------------------------------------------|
|--------------------------------------------------------|
|--------------------------------------------------------|
|--------------------------------------------------------|
|-3-1-0-1--3-1-0-1--3-1-0-1--2-4-5-7---------------------|

Riff A
|--------------------------------------------------------|
|--------------------------------------------------------|
|--------------------------------------------------------|
|--------------------------------------------------------|
|-6--------6/7---9-7-6-----6/7---11-9-7------------------|
|-4-0-0--0h4/5---7-5-4---0h4/5----9-7-5------------------|

Riff C
|--------------------------------------------------------|
|--------------------------------------------------------|
|--------------------------------------------------------|
|--------------------------------------------------------|
|--------------------------------------------------------|
|-3-1-0-1--3-1-0-1--3-1-0-1--2-4-5-7---------------------|

Riff A
|--------------------------------------------------------|
|--------------------------------------------------------|
|--------------------------------------------------------|
|--------------------------------------------------------|
|-6--------6/7---9-7-6-----6/7---11-9-7------------------|
|-4-0-0--0h4/5---7-5-4---0h4/5----9-7-5------------------|

Riff B
|--------------------------------------------------------|
|--------------------------------------------------------|
|--------------------------------------------------------|
|--------------------------------------------------------|
|-6--------6/7---9-7-6-----6/7---9-6-11-7----------------|
|-4-0-0--0h4/5---7-5-4---0h4/5---7-4--9-5----------------|

Riff A
|--------------------------------------------------------|
|--------------------------------------------------------|
|--------------------------------------------------------|
|--------------------------------------------------------|
|-6--------6/7---9-7-6-----6/7---11-9-7-------6----------|
|-4-0-0--0h4/5---7-5-4---0h4/5----9-7-5-------4----------|

Riff A
|--------------------------------------------------------|
|--------------------------------------------------------|
|--------------------------------------------------------|
|--------------------------------------------------------|
|-6--------6/7---9-7-6-----6/7---11-9-7------------------|
|-4-0-0--0h4/5---7-5-4---0h4/5----9-7-5------------------|

Riff C
|--------------------------------------------------------|
|--------------------------------------------------------|
|--------------------------------------------------------|
|--------------------------------------------------------|
|--------------------------------------------------------|
|-3-1-0-1--3-1-0-1--3-1-0-1--2-4-5-7---------------------|

Riff A
|--------------------------------------------------------|
|--------------------------------------------------------|
|--------------------------------------------------------|
|--------------------------------------------------------|
|-6--------6/7---9-7-6-----6/7---11-9-7------------------|
|-4-0-0--0h4/5---7-5-4---0h4/5----9-7-5------------------|

Riff C
|--------------------------------------------------------|
|--------------------------------------------------------|
|--------------------------------------------------------|
|--------------------------------------------------------|
|--------------------------------------------------------|
|-3-1-0-1--3-1-0-1--3-1-0-1--2-4-5-7---------------------|

Riff D
|--------------------------------------------------------|
|--------------------------------------------------------|
|--------------------------------------------6-----------|
|------6-5----------6-5----------6-5---------6-------7---|
|-6-6------7---6-6------7---6-6------5---6-6----6-6--7---|
|-4-4----------4-4----------4-4----------4-4----4-4------|
  x x          x x          x x          x x    x x

Riff D
|--------------------------------------------------------|
|--------------------------------------------------------|
|--------------------------------------------6-----------|
|------6-5----------6-5----------6-5---------6-------7---|
|-6-6------7---6-6------7---6-6------5---6-6----6-6--7---|
|-4-4----------4-4----------4-4----------4-4----4-4------|
  x x          x x          x x          x x    x x

Riff D
|--------------------------------------------------------|
|--------------------------------------------------------|
|--------------------------------------------6-----------|
|------6-5----------6-5----------6-5---------6-------7---|
|-6-6------7---6-6------7---6-6------5---6-6----6-6--7---|
|-4-4----------4-4----------4-4----------4-4----4-4------|
  x x          x x          x x          x x    x x

Riff D
|--------------------------------------------------------|
|--------------------------------------------------------|
|--------------------------------------------6-----------|
|------6-5----------6-5----------6-5---------6-------7---|
|-6-6------7---6-6------7---6-6------5---6-6----6-6--7---|
|-4-4----------4-4----------4-4----------4-4----4-4------|
  x x          x x          x x          x x    x x

|--------------------------------------------------------|
|--------------------------------------------------------|
|------6-------------------------------------------------|
|------6-------7-----------------------------------------|
|-6-6-----6-6--7----6------6-6-6-6-6-6-6-6---------------|
|-4-4-----4-4-------4------4-4-4-4-4-4-4-4---------------|
  x x     x x              x x x x x x x x

Riff E (solo)
|--------------------------------------------------------|
|--------------------------------------------------------|
|---------------8---------------------9-6----------------|
|-6-h9-8---6-h9---8----6-h9-8---6-h9---------------------|
|--------------------------------------------------------|
|--------------------------------------------------------|

|--------------------------------------------------------|
|--------------------------------------------------------|
|---------------8---------------------9-6----------------|
|-6-h9-8---6-h9---8----6-h9-8---6-h9---------------------|
|--------------------------------------------------------|
|--------------------------------------------------------|

Riff A
|--------------------------------------------------------|
|--------------------------------------------------------|
|--------------------------------------------------------|
|--------------------------------------------------------|
|-6--------6/7---9-7-6-----6/7---11-9-7------------------|
|-4-0-0--0h4/5---7-5-4---0h4/5----9-7-5------------------|

Riff B
|--------------------------------------------------------|
|--------------------------------------------------------|
|--------------------------------------------------------|
|--------------------------------------------------------|
|-6--------6/7---9-7-6-----6/7---9-6-11-7----------------|
|-4-0-0--0h4/5---7-5-4---0h4/5---7-4--9-5----------------|

Riff A
|--------------------------------------------------------|
|--------------------------------------------------------|
|--------------------------------------------------------|
|--------------------------------------------------------|
|-6--------6/7---9-7-6-----6/7---11-9-7------------------|
|-4-0-0--0h4/5---7-5-4---0h4/5----9-7-5------------------|

Riff B
|--------------------------------------------------------|
|--------------------------------------------------------|
|--------------------------------------------------------|
|--------------------------------------------------------|
|-6--------6/7---9-7-6-----6/7---9-6-11-7----------------|
|-4-0-0--0h4/5---7-5-4---0h4/5---7-4--9-5----------------|

To Isengard! 	To Isengard!

Riff A
|--------------------------------------------------------|
|--------------------------------------------------------|
|--------------------------------------------------------|
|--------------------------------------------------------|
|-6--------6/7---9-7-6-----6/7---11-9-7------6-----------|
|-4-0-0--0h4/5---7-5-4---0h4/5----9-7-5------4-----------|

some lyrics

Riff A
|--------------------------------------------------------|
|--------------------------------------------------------|
|--------------------------------------------------------|
|--------------------------------------------------------|
|-6--------6/7---9-7-6-----6/7---11-9-7------------------|
|-4-0-0--0h4/5---7-5-4---0h4/5----9-7-5------------------|

Riff C (only part of the song, im not sure about)
|--------------------------------------------------------|
|--------------------------------------------------------|
|--------------------------------------------------------|
|--------------------------------------------------------|
|--------------------------------------------------------|
|-3-1-0-1--3-1-0-1--3-1-0-1--2-4-5-7---------------------|

Riff A
|--------------------------------------------------------|
|--------------------------------------------------------|
|--------------------------------------------------------|
|--------------------------------------------------------|
|-6--------6/7---9-7-6-----6/7---11-9-7------------------|
|-4-0-0--0h4/5---7-5-4---0h4/5----9-7-5------------------|

Riff C
|--------------------------------------------------------|
|--------------------------------------------------------|
|--------------------------------------------------------|
|--------------------------------------------------------|
|--------------------------------------------------------|
|-3-1-0-1--3-1-0-1--3-1-0-1--2-4-5-7---------------------|

Riff D
|--------------------------------------------------------|
|--------------------------------------------------------|
|--------------------------------------------6-----------|
|------6-5----------6-5----------6-5---------6-------7---|
|-6-6------7---6-6------7---6-6------5---6-6----6-6--7---|
|-4-4----------4-4----------4-4----------4-4----4-4------|
  x x          x x          x x          x x    x x

Riff D
|--------------------------------------------------------|
|--------------------------------------------------------|
|--------------------------------------------6-----------|
|------6-5----------6-5----------6-5---------6-------7---|
|-6-6------7---6-6------7---6-6------5---6-6----6-6--7---|
|-4-4----------4-4----------4-4----------4-4----4-4------|
  x x          x x          x x          x x    x x

Riff D
|--------------------------------------------------------|
|--------------------------------------------------------|
|--------------------------------------------6-----------|
|------6-5----------6-5----------6-5---------6-------7---|
|-6-6------7---6-6------7---6-6------5---6-6----6-6--7---|
|-4-4----------4-4----------4-4----------4-4----4-4------|
  x x          x x          x x          x x    x x

Riff D
|--------------------------------------------------------|
|--------------------------------------------------------|
|--------------------------------------------6-----------|
|------6-5----------6-5----------6-5---------6-------7---|
|-6-6------7---6-6------7---6-6------5---6-6----6-6--7---|
|-4-4----------4-4----------4-4----------4-4----4-4------|
  x x          x x          x x          x x    x x

|--------------------------------------------------------|
|--------------------------------------------------------|
|------6-------------------------------------------------|
|------6-------7-----------------------------------------|
|-6-6-----6-6--7----6------------------------------------|
|-4-4-----4-4-------4------------------------------------|
  x x     x x

Riff F
|--------------------------------------------------------|
|--------------------------------------------------------|
|--------------------------------------------------------|
|--------------------------------------------------------|
|-6--6-6----6/7--7-7--9-7-6------------------------------|
|-4--4-4--0h4/5--5-5--7-5-4------------------------------|
     x x         x x

Riff F
|--------------------------------------------------------|
|--------------------------------------------------------|
|--------------------------------------------------------|
|--------------------------------------------------------|
|-6--6-6----6/7--7-7--9-7-6------------------------------|
|-4--4-4--0h4/5--5-5--7-5-4------------------------------|
     x x         x x

Riff F
|--------------------------------------------------------|
|--------------------------------------------------------|
|--------------------------------------------------------|
|--------------------------------------------------------|
|-6--6-6----6/7--7-7--9-7-6------------------------------|
|-4--4-4--0h4/5--5-5--7-5-4------------------------------|
     x x         x x

Riff F
|--------------------------------------------------------|
|--------------------------------------------------------|
|--------------------------------------------------------|
|--------------------------------------------------------|
|-6--6-6----6/7--7-7--9-7-6------------------------------|
|-4--4-4--0h4/5--5-5--7-5-4------------------------------|
     x x         x x

  Visit MetalTabs.com for more metal tablature

bottom separator

Contact Us | Privacy Policy | Disclaimer | Legal Notice
Copyright © 2001-2014 MetalTabs.com. All Rights Reserved.