#----------------------------------PLEASE NOTE---------------------------------#
#This file is the author's own work and represents their interpretation of the #
#song. You may only use this file for private study, scholarship, or research. #
#Unless specified otherwise, this is NOT an official tab from the band members.#
#------------------------------------------------------------------------------#

  Visit MetalTabs.com for more metal tablature
  
Triumphator  Infernal Divinity
                     From the Album 'Wings Of Antichrist
              Copyright 1999, Necropolis Records
                     Version 1.0  October 2002

Transcribed by: Vortigern

For Questions, Comments, Newest Version, or Corrections contact
Vortigern: at guy@freemail.hammerfall.net

Check Out Death8699.com, With More Transcriptions On It:
 http://www.death8699.com

.  - palm mute                  ph    - pinched harmonic
/  - slide up to                ah    - artificial harmonic
\  - slide down to              th    - tap harmonic
~  - vibrato                    hr    - natural harmonic
h  - hammer on                  b     - bend
p  - pull off                      Suffixes for bend
t  - tap with finger                    f - full bend    h - half bend
"  - tremolo picking                    r - release      t - tap bend
X  - percussion mute                    p - pick when bent
>  - accented note                 Prefixes
() - ghost note, sustained note         p - pre-bend     w - use bar
*  - see comment                        d - don't pick start of bend

Tune Gtr to D
Always two guitars the same, unless indicated otherwise.

Infernal Divinity (tremolo pick whole song.)

Riff A
|--------------------------------------------------------------------|
|--------------------------------------------------------------------|
|--------------------------------------------------------------------|
|---9---10---7---9---------------------------------------------------|
|---7---8----5---7---------------------------------------------------|
|-0---0----0---0-----------------------------------------------------|

Riff B
|--------------------------------------------------------------------|
|--------------------------------------------------------------------|
|--------------------------------------------------------------------|
|---9-10-7-9-10-5-7----9-10-7-9-10-12-10-----------------------------|
|---7-8--5-7-8--3-5----7-8--5-7-8--10-8------------------------------|
|-0------------------0-----------------------------------------------|

Riff C
|--------------------------------------------------------------------|
|--------------------------------------------------------------------|
|-9-10-7-9-12-13-12-10-----------------------------------------------|Gtr
|-7-8--5-7-10-11-10-8------------------------------------------------|I
|--------------------------------------------------------------------|
|--------------------------------------------------------------------|

|--------------------------------------------------------------------|
|---insert random solo here------------------------------------------|
|--------------------------------------------------------------------|Gtr
|--------------------------------------------------------------------|II
|--------------------------------------------------------------------|
|--------------------------------------------------------------------|

Riff D
|--------------------------------------------------------------------|
|--------------------------------------------------------------------|
|--------------------------------------------------------------------|
|--------------------------------------------------------------------|
|----------2--3-2-0--------------------------------------------------|
|-2--3-2-0-----------------------------------------------------------|

after 2x with above
|--------------------------------------------------------------------|
|--------------------------------------------------------------------|
|----------2--3-2-0--------------------------------------------------|Gtr
|-2--3-2-0-----------------------------------------------------------|II
|--------------------------------------------------------------------|
|--------------------------------------------------------------------|
after 2x both guitars again with first bit.

Riff E
|--------------------------------------------------------------------|
|--let ring----------------------------------------------------------|
|--------------------------------------------------------------------|
|-2------------------------------------------------------------------|
|-0------------------------------------------------------------------|
|--------------------------------------------------------------------|

Riff F
|--------------------------------------------------------------------|
|--------------------------------------------------------------------|
|--------------------------------------------------------------------|
|-9-11-7-9-----------------------------------------------------------|
|-7-9--5-7-----------------------------------------------------------|
|--------------------------------------------------------------------|

Riff G
|--------------------------------------------------------------------|
|--------------------------------------------------------------------|
|-------9---------7--------------------------------------------------|
|-9---9---9-7---7---7------------------------------------------------|
|-7-7-------5-5------------------------------------------------------|
|--------------------------------------------------------------------|
It's more than this, but just goof around. It's pretty hard too hear.

Riff H
|--------------------------------------------------------------------|
|--------------------------------------------------------------------|
|--------------------------------------------------------------------|
|-2------------------------------------------------------------------|
|-0-3-2--------------------------------------------------------------|
|---1-0--------------------------------------------------------------|


Check Out Death8699.com, With More Transcriptions On It:
 http://www.death8699.com

  Visit MetalTabs.com for more metal tablature