top separator

Home

Forum

FAQ

Contact Us

Link to Us

MetalTabs.com logo

Bands

0-9

A

B

C

D

E

F

G

H

I

J

K

L

M

N

O

P

Q

R

S

T

U

V

W

X

Y

Z

Halford - "The One You Love To Hate" Guitar Tab

Plain Text Version
More Halford Tabs

Hits: 5143
Rated: 4.33 out of 5 (3 votes)
Updated: 2003-02-07 15:14:38

By:

Vortigern


#----------------------------------PLEASE NOTE---------------------------------#
#This file is the author's own work and represents their interpretation of the #
#song. You may only use this file for private study, scholarship, or research. #
#Unless specified otherwise, this is NOT an official tab from the band members.#
#------------------------------------------------------------------------------#

  Visit MetalTabs.com for more metal tablature
  
HALFORD  THE ONE YOU LOVE TO HATE
                     From the Album RESURRECTION
              Copyright 2000 METAL-IS
                     Version 1.0  OCTOBER 2002

Transcribed by: VORTIGERN

For Questions, Comments, Newest Version, or Corrections contact
VORTIGERN: at guy@freemail.hammerfall.net

Check Out Death8699.com, With More Transcriptions On It:
 http://www.death8699.com

.  - palm mute                  ph    - pinched harmonic
/  - slide up to                ah    - artificial harmonic
\  - slide down to              th    - tap harmonic
~  - vibrato                    hr    - natural harmonic
h  - hammer on                  b     - bend
p  - pull off                      Suffixes for bend
t  - tap with finger                    f - full bend    h - half bend
"  - tremolo picking                    r - release      t - tap bend
X  - percussion mute                    p - pick when bent
>  - accented note                 Prefixes
() - ghost note, sustained note         p - pre-bend     w - use bar
*  - see comment                        d - don't pick start of bend

Tune Gtr to D
Both guitars the same unless indicated otherwise.

THE ONE YOU LOVE TO HATE

Riff A
|--------------------------------------------------------------------|
|--------------------------------------------------------------------|
|--------------------------------------------------------------------|
|----9----9----7----10----7/9----------------------------------------|
|----7----7----5----8-----5/7----------------------------------------|
|-00---00---00---00----00--------------------------------------------|
  ..   ..   ..   ..    ..

Second time
|--------------------------------------------------------------------|
|--------------------------------------------------------------------|
|--------------------------------------------------------------------|
|----9----9----7----10----9------------------------------------------|
|----7----7----5----8-----7------------------------------------------|
|-00---00---00---00----00--------------------------------------------|
  ..   ..   ..   ..    ..

Riff B
first
|--------------------------------------------------------------------|
|--------------------------------------------------------------------|
|--------------------------------------------------------------------|
|-7/9----12\9----7/9-------------------------------------------------|
|-5/7----10\7----5/7-------------------------------------------------|
|-----00------00-----------------------------------------------------|
      ..      ..

second
|--------------------------------------------------------------------|
|--------------------------------------------------------------------|
|--------------------------------------------------------------------|
|-7/9----12\9----7/9--555-77-----------------------------------------|
|-5/7----10\7----5/7--333-55-----------------------------------------|
|-----00------00-----------------------------------------------------|
      ..      ..

third
|--------------------------------------------------------------------|
|--------------------------------------------------------------------|
|--------------------------------------------------------------------|
|-7/9----12\9----7/9-------------------------------------------------|
|-5/7----10\7----5/7---10-10-10-8-55-5/7-----------------------------|
|-----00------00-----------------------------------------------------|
      ..      ..
Riff C
first
|--------------------------------------------------------------------|
|--------------------------------------------------------------------|
|--------------------------------------------------------------------|
|--------------------------------------------------------------------|
|--------------------------------------------------------------------|
|-00000000-222-5-2-5-6-----------------------------------------------|

second
|--------------------------------------------------------------------|
|--------------------------------------------------------------------|
|--------------------------------------------------------------------|
|--------------------------------------------------------------------|
|--------------------------------------------------------------------|
|-00000000-222-5-2-5-6~----------------------------------------------|

third
|--------------------------------------------------------------------|
|--------------------------------------------------------------------|
|--------------------------------------------------------------------|
|--------------------------------------------------------------------|
|--------------------------------------------------------------------|
|-00000000-222-5-2-5-6--10-10-10-6-6-7b~-----------------------------|

Riff D
Strum these chords.
|--------------------------------------------------------------------|
|--------------------------------------------------------------------|
|-5--2--4-----5--9--4------------------------------------------------|Gtr
|-3--0--2-----3--7--2------------------------------------------------|I
|--------------------------------------------------------------------|
|--------------------------------------------------------------------|

|--------------------------------------------------------------------|
|----insert solo here------------------------------------------------|
|--------------------------------------------------------------------|Gtr
|--------------------------------------------------------------------|II
|--------------------------------------------------------------------|
|--------------------------------------------------------------------|


Check Out Death8699.com, With More Transcriptions On It:
 http://www.death8699.com

  Visit MetalTabs.com for more metal tablature

bottom separator

Contact Us | Privacy Policy | Disclaimer
Copyright © 2001-2014 MetalTabs.com. All Rights Reserved.