top separator

Home

Forum

What's New

Submit a Tab

FAQ

Links

Contact Us

Link to Us

MuSpy.com

MetalTabs.com logo

Bands

0-9

A

B

C

D

E

F

G

H

I

J

K

L

M

N

O

P

Q

R

S

T

U

V

W

X

Y

Z

Search

What

Where
 

Waylander - "Once Upon an Era" Guitar Tab

Plain Text Version
More Waylander Tabs

Hits: 3338
Updated: 2003-02-06 13:33:39

 

By:

Vortigern

sendpm.gif

email.gif

Important note
This tab is available online because we obtained explicit permission from Waylander or their label.


#----------------------------------PLEASE NOTE---------------------------------#
#This file is the author's own work and represents their interpretation of the #
#song. You may only use this file for private study, scholarship, or research. #
#Unless specified otherwise, this is NOT an official tab from the band members.#
#------------------------------------------------------------------------------#

  Visit MetalTabs.com for more metal tablature
  
Waylander
'Once Upon An Era'

from the album:
'Reawakening Pride Once Lost'
(Century Media)

Tabbed by: Vortigern
Contact, corrections: guy@freemail.hammerfall.net

Tune to D

h: hammer on
*: palm mute

Riff 1
|-------------|------------------|
|-------------|------------------|
|-------------|------------------|
|-4h6-6-6-4h6-|-2h4-4-4-4-2h4----|
|-4-4-4-4-4-4-|-2-2-2-2-2-2-2----|
|-------------|------------------|
Listen to the song for timing and repeats. Same for other
riffs.

Riff 2
|-------------------------------|
|-------------------------------|
|-------------------------------|
|------6------6----6------------|
|-4444-4-4444-4-44-4------------|
|-------------------------------|
  ****   ****   **

Riff 3
|---------------|----------------|
|---------------|----------------|
|---------------|----------------|
|-----6-4-5-4-2-|-----4-2-3-2-0--|
|-4-4-----------|-2-2------------|
|---------------|----------------|
Play first bit couple times, then next bit couple times.

Riff 4
|-------------------------------|
|-------------------------------|
|-2-4----2-6--------------------|
|-2-4----2-6--------------------|
|-0-2----0-4--------------------|
|-------------------------------|

Riff 5
|-------------------------------|
|-------------------------------|
|---------5---------------------|
|-2-2-4-5-3----2-2-4-5-4-2------|
|-0-0-2-3------0-0-2-3-2-0------|
|-------------------------------|

Riff 6
|-------------------------------|
|-------------------------------|
|-------------------------------|
|-4-2---------------------------|
|-4-2---------------------------|
|------0h222-0h222--------------|
       ***** *****
Really not sure about this last palm muted bit. Kinda hard to
hear.


That's it!

Other cool sites:
http://www.death8699.com
http://urcult.keenspace.com
http://groups.msn.com/sistersofpercy
http://groups.msn.com/hofmansguy
http://www.everglow.be
http://www.mxtabs.net

  Visit MetalTabs.com for more metal tablature

bottom separator

Contact Us | Privacy Policy | Disclaimer | Legal Notice
Copyright © 2001-2014 MetalTabs.com. All Rights Reserved.