top separator

Home

Forum

What's New

Submit a Tab

FAQ

Links

Contact Us

Link to Us

MetalTabs.com logo

Bands

0-9

A

B

C

D

E

F

G

H

I

J

K

L

M

N

O

P

Q

R

S

T

U

V

W

X

Y

Z

Search

What

Where
 

Cruachan - "Death of a Gael" Guitar Tab

Plain Text Version
More Cruachan Tabs

Hits: 5389
Rated: 4.25 out of 5 (4 votes)
Updated: 2003-02-06 13:14:21

 

By:

Darkenelf

sendpm.gif

email.gif

Important note
This tab is available online because we obtained explicit permission from Cruachan or their label.


#----------------------------------PLEASE NOTE---------------------------------#
#This file is the author's own work and represents their interpretation of the #
#song. You may only use this file for private study, scholarship, or research. #
#Unless specified otherwise, this is NOT an official tab from the band members.#
#------------------------------------------------------------------------------#

  Visit MetalTabs.com for more metal tablature
  
Band: Cruachan
Album: Folk-Lore
Song: Death of a Gael
Tabbed by: Martijn Wietsma
Email: dalvanian@yahoo.com
Date: 19-09-2002

Tune down to D#

Riff A (flute intro)
d|-------------------------------------------------------|
A|----------------------2--------------------------------|
F|-3-3p0-1h3---3p0-1h3----5-3--5p3---------3h5h6--5-3----|
C|---------------------------------6--5-3----------------|
G|-------------------------------------------------------|
D|-------------------------------------------------------|
						(1x)
Riff B (play riff A+B together)
d|-------------------------------------------------------|
A|-------------------------------------------------------|
F|-------------------------------------------------------|
C|------------6-5----------------------6-5---------------|
G|-8--6-8--6--4-3--8-----8--6--5-3--6--4-3--8------------|
D|-6--4-6--4-------6-----6--4--3-1--4-------6------------|
						(2x)
Bass riff

Riff A (flute)
d|-------------------------------------------------------|
A|----------------------2--------------------------------|
F|-3-3p0-1h3---3p0-1h3----5-3--5p3---------3h5h6--5-3----|
C|---------------------------------6--5-3----------------|
G|-------------------------------------------------------|
D|-------------------------------------------------------|
						(1x)
Riff B (play riff A+B together)
d|-------------------------------------------------------|
A|-------------------------------------------------------|
F|-------------------------------------------------------|
C|------------6-5----------------------6-5---------------|
G|-8--6-8--6--4-3--8-----8--6--5-3--6--4-3--8------------|
D|-6--4-6--4-------6-----6--4--3-1--4-------6------------|
						(2x)

Bass riff

Riff A (flute)
d|-------------------------------------------------------|
A|----------------------2--------------------------------|
F|-3-3p0-1h3---3p0-1h3----5-3--5p3---------3h5h6--5-3----|
C|---------------------------------6--5-3----------------|
G|-------------------------------------------------------|
D|-------------------------------------------------------|
						(1x)
Riff B (play riff A+B together)
d|-------------------------------------------------------|
A|-------------------------------------------------------|
F|-------------------------------------------------------|
C|------------6-5----------------------6-5---------------|
G|-8--6-8--6--4-3--8-----8--6--5-3--6--4-3--8------------|
D|-6--4-6--4-------6-----6--4--3-1--4-------6------------|
						(2x)
Riff C (keyboard part, not correct, but hey, still keyboard)
d|--------------------------------------------------------|
A|--------------------------------------------------------|
F|-5p3h---5p3h---6p4h---6p4h---7p5h---7p5h---9p7h---9p7h--|
C|-----6------6------7------7------8------8------10-----10|
G|--------------------------------------------------------|
D|--------------------------------------------------------|
						(2x)
Riff D
(keyboard part, not correct, but hey, still keyboard)
d|-------------------------------------------------------|
A|---------------5p3h---------------------6p4h-----------|
F|-5p3h---5p3h-------5-----6p4h---6p4h--------6----------|
C|-----6------6----------------7------7------------------|
G|-------------------------------------------------------|
D|-------------------------------------------------------|

d|-------------------------------------------------------|
A|---------------7p5h----------------------9p7h----------|
F|-7p5h---7p5h-------7-----9p7h----9p7h--------9---------|
C|-----8------8----------------10------10----------------|
G|-------------------------------------------------------|
D|-------------------------------------------------------|
						(2x)
Riff C (keyboard part, not correct, but hey, still keyboard)
d|--------------------------------------------------------|
A|--------------------------------------------------------|
F|-5p3h---5p3h---6p4h---6p4h---7p5h---7p5h---9p7h---9p7h--|
C|-----6------6------7------7------8------8------10-----10|
G|--------------------------------------------------------|
D|--------------------------------------------------------|
						(2x)
Riff D
(keyboard part, not correct, but hey, still keyboard)
d|-------------------------------------------------------|
A|---------------5p3h---------------------6p4h-----------|
F|-5p3h---5p3h-------5-----6p4h---6p4h--------6----------|
C|-----6------6----------------7------7------------------|
G|-------------------------------------------------------|
D|-------------------------------------------------------|

d|-------------------------------------------------------|
A|---------------7p5h----------------------9p7h----------|
F|-7p5h---7p5h-------7-----9p7h----9p7h--------9---------|
C|-----8------8----------------10------10----------------|
G|-------------------------------------------------------|
D|-------------------------------------------------------|
						(2x)
Riff E
d|-------------------------------------------------------|
A|-------------------------------------------------------|
F|-------------------------------------------------------|
C|-------------------------------------------------------|
G|-8---8---8---8---8---8----6---6---6--6---6---6---------|
D|-6-6-6-6-6---6-6-6-6-6----4-4-4-4-4--4-4-4-4-4---------|
     .   .       .   .        .   .      .   .

d|-------------------------------------------------------|
A|-------------------------------------------------------|
F|-------------------------------------------------------|
C|-6---6---6--6---6---6-----8---8---8--8---8---8---------|
G|-4-4-4-4-4--4-4-4-4-4-----6-6-6-6-6--6-6-6-6-6---------|
D|-------------------------------------------------------|
     .   .      .   .         .   .      .   .
						(1x)
Riff F
d|-------------------------------------------------------|
A|-------------------------------------------------------|
F|-------------------------------------------------------|
C|-------------------------------------------------------|
G|--------8---------8---------8---------8----------------|
D|-6-6-6--6--6-6-6--6--6-6-6--6--6-6-6--6----------------|
   . . .     . . .     . . .     . . .

d|-------------------------------------------------------|
A|-------------------------------------------------------|
F|-------------------------------------------------------|
C|-------------------------------------------------------|
G|--------6---------6---------6---------6----------------|
D|-4-4-4--4--4-4-4--4--4-4-4--4--4-4-4--4----------------|
   . . .     . . .     . . .     . . .

d|-------------------------------------------------------|
A|-------------------------------------------------------|
F|-------------------------------------------------------|
C|--------6---------6---------6---------6----------------|
G|-4-4-4--4--4-4-4--4--4-4-4--4--4-4-4--4----------------|
D|-------------------------------------------------------|
   . . .     . . .     . . .     . . .

d|-------------------------------------------------------|
A|-------------------------------------------------------|
F|-------------------------------------------------------|
C|--------8---------8---------8---------8----------------|
G|-6-6-6--6--6-6-6--6--6-6-6--6--6-6-6--6----------------|
D|-------------------------------------------------------|
   . . .     . . .     . . .     . . .

Riff G
d|-------------------------------------------------------|
A|-------------------------------------------------------|
F|-------------------------------------------------------|
C|-----------------6-5---------------------------6-5-----|
G|-8----6-5--3--6--4-3--8--------8----6-5--3--6--4-3--8--|
D|-6----4-3--1--4-------6--------6----4-3--1--4-------6--|
						(1x)

Riff A (flute)
d|-------------------------------------------------------|
A|----------------------2--------------------------------|
F|-3-3p0-1h3---3p0-1h3----5-3--5p3---------3h5h6--5-3----|
C|---------------------------------6--5-3----------------|
G|-------------------------------------------------------|
D|-------------------------------------------------------|
						(1x)
Riff B (play riff A+B together)
d|-------------------------------------------------------|
A|-------------------------------------------------------|
F|-------------------------------------------------------|
C|------------6-5----------------------6-5---------------|
G|-8--6-8--6--4-3--8-----8--6--5-3--6--4-3--8------------|
D|-6--4-6--4-------6-----6--4--3-1--4-------6------------|
						(2x)

Riff B
d|-------------------------------------------------------|
A|-------------------------------------------------------|
F|-------------------------------------------------------|
C|------------6-5----------------------6-5---------------|
G|-8--6-8--6--4-3--8-----8--6--5-3--6--4-3--8------------|
D|-6--4-6--4-------6-----6--4--3-1--4-------6------------|
						(2x)

  Visit MetalTabs.com for more metal tablature

bottom separator

Contact Us | Privacy Policy | Disclaimer | Legal Notice
Copyright © 2001-2014 MetalTabs.com. All Rights Reserved.