top separator

Home

Forum

What's New

Submit a Tab

FAQ

Links

Contact Us

Link to Us

MetalTabs.com logo

Bands

0-9

A

B

C

D

E

F

G

H

I

J

K

L

M

N

O

P

Q

R

S

T

U

V

W

X

Y

Z

Search

What

Where
 

Soulfly - "Downstroy" Guitar Tab

Plain Text Version
More Soulfly Tabs

Hits: 10716
Rated: 3.67 out of 5 (21 votes)
Updated: 2003-02-04 13:40:52

 

Important note
This tab is available online because we obtained explicit permission from Soulfly or their label.


#----------------------------------PLEASE NOTE---------------------------------#
#This file is the author's own work and represents their interpretation of the #
#song. You may only use this file for private study, scholarship, or research. #
#Unless specified otherwise, this is NOT an official tab from the band members.#
#------------------------------------------------------------------------------#

  Visit MetalTabs.com for more metal tablature
  
Band:  Soulfly
Album: 3
Song:  Downstroy

Transcribed By: SandBlasted Skin
Corrections & Comments: Farbeyonddriven@philanselmo.com


.  - palm mute           /  - slide up to
\  - slide down to       ~  - vibrato
h  - hammer on           b  - Bend
p  - pull off            Suffixes for bend
t  - tap                 f  - full bend    h - half bend
ph - pinched harmonic    q  - quarter bend t - tap bend
*  - see comment         ^  - Hold bend    r release bend
x  - Stuccatto           ~  - vibrato bend
,  - slight palm mute    () - ghost note, sustained note
"  - tremolo note        <> - Trill

Tunning C G C F A D

Riff One

|-------------------------------------------------------------------|
|-------------------------------------------------------------------|
|-------------------------------------------------------------------|
|-------------------------------------------------------------------|
|-----7-6-4------7-6-4------7-6-4------7-6-4------------------------|
|-0-0-7-6-4--0-0-7-6-4--0-0-7-6-4--0-0-7-6-4------------------------|
  . .        . .        . .        . .

Riff Two

|-------------------------------------------------------------------|
|-------------------------------------------------------------------|
|-------------------------------------------------------------------|
|-------------------------------------------------------------------|
|-------------------------------------------------------------------|
|-0-1-0-0-0--0-1-0-0-0--0-1-0-0-0--0-1-0-0-0------------------------|

Riff Three

|-------------------------------------------------------------------|
|-------------------------------------------------------------------|
|-------------------------------------------------------------------|
|-------------------------------------------------------------------|
|-----7-6---------7-6-4------7-6---------7-6-4----------------------|
|-0-0-7-6-0-0-0-0-7-6-4--0-0-7-6-0-0-0-0-7-6-4----------------------|
  . .     . . . .        . .     . . . .

Riff Four

|-------------------------------------------------------------------|
|-------------------------------------------------------------------|
|-------------------------------------------------------------------|
|-------------------------------------------------------------------|
|-0-7-6-0-0-7-6-4-0-7-6-0-0-7-6-4-----------------------------------|
|-0-7-6-0-0-7-6-4-0-7-6-0-0-7-6-4-----------------------------------|
  .     . .       .     . .

Riff Five                                         (Use Flanger)

|-------------------------------------------------------------------|
|-------------------------------------------------------------------|
|-------------------------------------------------------------------|
|-------------------------------------------------------------------|
|-------------------------------------------------2-2-2-0-1-2-1-0---|
|-000-000-000-000-000-000-000-000-000-000-000-000-2-2-2-0-1-2-1-0---|
  ... ... ... ... ... ... ... ... ... ... ... ...

Riff Six (Ending)

|-------------------------------------------------------------------|
|-------------------------------------------------------------------|
|-------------------------------------------------------------------|
|-------------------------------------------------------------------|
|-2-2-2-0-1-2-2-----------------------------------------------------|
|-2-2-2-0-1-2-2-----------------------------------------------------|

  Visit MetalTabs.com for more metal tablature

bottom separator

Contact Us | Privacy Policy | Disclaimer | Legal Notice
Copyright © 2001-2014 MetalTabs.com. All Rights Reserved.