top separator

Home

Forum

What's New

Submit a Tab

FAQ

Links

Contact Us

Link to Us

MuSpy.com

MetalTabs.com logo

Bands

0-9

A

B

C

D

E

F

G

H

I

J

K

L

M

N

O

P

Q

R

S

T

U

V

W

X

Y

Z

Search

What

Where
 

Cruachan - "Horned God" Guitar Tab

Plain Text Version
More Cruachan Tabs

Hits: 4356
Rated: 4.33 out of 5 (3 votes)
Updated: 2003-02-06 13:32:11

 

By:

Darkenelf

sendpm.gif

email.gif

Important note
This tab is available online because we obtained explicit permission from Cruachan or their label.


#----------------------------------PLEASE NOTE---------------------------------#
#This file is the author's own work and represents their interpretation of the #
#song. You may only use this file for private study, scholarship, or research. #
#Unless specified otherwise, this is NOT an official tab from the band members.#
#------------------------------------------------------------------------------#

  Visit MetalTabs.com for more metal tablature
  
Band: Cruachan
Album: Folk-Lore
Song: To Invoke the Horned God
Tabbed by: Martijn Wietsma
Email: dalvanian@yahoo.com
Date: 19-09-2002

Tune down to D#

Riff A
d|-------------------------------------------------------|
A|-------------------------------------------------------|
F|-------------------------------------------------------|
C|-------------------------------------------------------|
G|-5--5-5-5--5--5-5-5--5--3---5--5-5-5--5--5-5-5--5--3---|
D|-3--3-3-3--3--3-3-3--3--1---3--3-3-3--3--3-3-3--3--1---|
   .  . . .  .  . . .  .  .   .  . . .  .  . . .  .  .

d|-------------------------------------------------------|
A|-------------------------------------------------------|
F|-------------------------------------------------------|
C|-------------------------------------------------------|
G|-5--5-5-5--5--5-5-5--5--3---3-3--3-3-3--3--3-3-3--3----|
D|-3--3-3-3--3--3-3-3--3--1---1-1--1-1-1--1--1-1-1--1----|
   .  . . .  .  . . .  .  .   . .  . . .  .  . . .  .
						(2x)
Riff B
Flute solo
d|-12--------12------------------------------------------|
A|----12-12-----12-15-12----------12-15-15---------------|
F|-----------------------14-12h14------------------------|
C|-------------------------------------------------------|
G|-------------------------------------------------------|
D|-------------------------------------------------------|

d|-12--------12------------------------------------------|
A|----12-12-----12-15-12----------12---------------------|
F|-----------------------14-12h14----12-12---------------|
C|-------------------------------------------------------|
G|-------------------------------------------------------|
D|-------------------------------------------------------|

Riff C (play riff B + C together)
d|-------------------------------------------------------|
A|-------------------------------------------------------|
F|-------------------------------------------------------|
C|-------------------------------------------------------|
G|-7---------------7-5-7--5---7---------------7-5-7--8---|
D|-5--5-5-5-5-5-5--5-3-5--3---5--5-5-5-5-5-5--5-3-5--6---|
      . . . . . .                . . . . . .
						(2x)
Riff D
d|-------------------------------------------------------|
A|-------------------------------------------------------|
F|-------------------------------------------------------|
C|-4--------4--------------------------------------------|
G|---5-5-5----5--8\5\3--5p3--5-8-8-----------------------|
D|-------------------------------------------------------|

d|-------------------------------------------------------|
A|-------------------------------------------------------|
F|-------------------------------------------------------|
C|-4--------4--------------------------------------------|
G|---5-5-5----5--8\5\3--5p3--5---------------------------|
D|-----------------------------6-6-----------------------|
						(2x)

Riff B
Flute solo
d|-12--------12------------------------------------------|
A|----12-12-----12-15-12----------12-15-15---------------|
F|-----------------------14-12h14------------------------|
C|-------------------------------------------------------|
G|-------------------------------------------------------|
D|-------------------------------------------------------|

d|-12--------12------------------------------------------|
A|----12-12-----12-15-12----------12---------------------|
F|-----------------------14-12h14----12-12---------------|
C|-------------------------------------------------------|
G|-------------------------------------------------------|
D|-------------------------------------------------------|

Riff C (play riff B + C together)
d|-------------------------------------------------------|
A|-------------------------------------------------------|
F|-------------------------------------------------------|
C|-------------------------------------------------------|
G|-7---------------7-5-7--5---7---------------7-5-7--8---|
D|-5--5-5-5-5-5-5--5-3-5--3---5--5-5-5-5-5-5--5-3-5--6---|
      . . . . . .                . . . . . .
						(2x)
Riff D
d|-------------------------------------------------------|
A|-------------------------------------------------------|
F|-------------------------------------------------------|
C|-4--------4--------------------------------------------|
G|---5-5-5----5--8\5\3--5p3--5-8-8-----------------------|
D|-------------------------------------------------------|

d|-------------------------------------------------------|
A|-------------------------------------------------------|
F|-------------------------------------------------------|
C|-4--------4--------------------------------------------|
G|---5-5-5----5--8\5\3--5p3--5---------------------------|
D|-----------------------------6-6-----------------------|
						(2x)

Riff E
d|-------------------------------------------------------|
A|-------------------------------------------------------|
F|-------------------------------------------------------|
C|-------------------------------------------------------|
G|-3--5h6-/8--7---3--5h6--/8--7--------------------------|
D|-1--3h4-/6--5---1--3h4--/6--5--------------------------|
						(2x)

Riff F
d|-------------------------------------------------------|
A|-------------------------------------------------------|
F|-------------------------------------------------------|
C|-------------------------------------------------------|
G|-6--8-9-8--9\8-----6--8-9-11-12-11-9-------------------|
D|-4--6-7-6--7\6-----4--6-7--9-10--9-7-------------------|
						(2x)

Riff E
d|-------------------------------------------------------|
A|-------------------------------------------------------|
F|-------------------------------------------------------|
C|-------------------------------------------------------|
G|-3--5h6-/8--7---3--5h6--/8--7--------------------------|
D|-1--3h4-/6--5---1--3h4--/6--5--------------------------|
						(2x)

Riff F
d|-------------------------------------------------------|
A|-------------------------------------------------------|
F|-------------------------------------------------------|
C|-------------------------------------------------------|
G|-6--8-9-8--9\8-----6--8-9-11-12-11-9-------------------|
D|-4--6-7-6--7\6-----4--6-7--9-10--9-7-------------------|
						(2x)

d|-------------------------------------------------------|
A|-------------------------------------------------------|
F|-------------------------------------------------------|
C|-------------------------------------------------------|
G|-9-7-5-------------------------------------------------|
D|-7-5-3-------------------------------------------------|
						(1x)
Riff G
d|-------------------------------------------------------|
A|-------------------------------------------------------|
F|-------------------------------------------------------|
C|-------------------------------------------------------|
G|-9---9---9---7-7-7-7-----9---9---9---7-7-7-7-----------|
D|-7---7---7---5-5-5-5-----7---7---7---5-5-5-5-----------|
						(1x)
Riff H
d|-------------------------------------------------------|
A|-------------------------------------------------------|
F|-------------------------------------------------------|
C|-------------------------------------------------------|
G|-3--3--6--9-9-9-9--------------------------------------|
D|-1--1--4--7-7-7-7--------------------------------------|
						(1x)
Riff G
d|-------------------------------------------------------|
A|-------------------------------------------------------|
F|-------------------------------------------------------|
C|-------------------------------------------------------|
G|-9---9---9---7-7-7-7-----9---9---9---7-7-7-7-----------|
D|-7---7---7---5-5-5-5-----7---7---7---5-5-5-5-----------|
						(1x)
Riff I
d|-------------------------------------------------------|
A|-------------------------------------------------------|
F|-------------------------------------------------------|
C|-------------------------------------------------------|
G|-8-8-8-8--4-4-4-4----8-8-8-8--4--6\4-------------------|
D|-6-6-6-6--2-2-2-2----6-6-6-6--2--4\2-------------------|

d|-------------------------------------------------------|
A|-------------------------------------------------------|
F|-------------------------------------------------------|
C|-------------------------------------------------------|
G|-8-8-8-8--4-4-4-4----6-6-6-6--6-6-6-6------------------|
D|-6-6-6-6--2-2-2-2----4-4-4-4--4-4-4-4------------------|
						(2x)
Riff H
d|-------------------------------------------------------|
A|-------------------------------------------------------|
F|-------------------------------------------------------|
C|-------------------------------------------------------|
G|-3--3--6--9-9-9-9--------------------------------------|
D|-1--1--4--7-7-7-7--------------------------------------|
						(2x)
Riff I
d|-------------------------------------------------------|
A|-------------------------------------------------------|
F|-------------------------------------------------------|
C|-------------------------------------------------------|
G|-8-8-8-8--4-4-4-4----8-8-8-8--4--6\4-------------------|
D|-6-6-6-6--2-2-2-2----6-6-6-6--2--4\2-------------------|

d|-------------------------------------------------------|
A|-------------------------------------------------------|
F|-------------------------------------------------------|
C|-------------------------------------------------------|
G|-8-8-8-8--4-4-4-4----6-6-6-6--6-6-6-6------------------|
D|-6-6-6-6--2-2-2-2----4-4-4-4--4-4-4-4------------------|
						(2x)
Riff H
d|-------------------------------------------------------|
A|-------------------------------------------------------|
F|-------------------------------------------------------|
C|-------------------------------------------------------|
G|-3--3--6--9-9-9-9--------------------------------------|
D|-1--1--4--7-7-7-7--------------------------------------|
						(2x)
Riff J
d|-------------------------------------------------------|
A|-------------------------------------------------------|
F|-------------------------------------------------------|
C|-------------------------------------------------------|
G|-8-8-8-8--10-10-10/11--11-11-11-11--10-10-10-8---------|
D|-6-6-6-6---8--8--8/-9---9--9--9--9---8--8--8-6---------|
						(4x)
Riff K
d|-------------------------------------------------------|
A|-------------------------------------------------------|
F|-------------------------------------------------------|
C|-------------------------------------------------------|
G|-8----3----6-------------------------------------------|
D|-6----1----4-------------------------------------------|
						(8x)
Riff L
d|-------------------------------------------------------|
A|-------------------------------------------------------|
F|-------------------------------------------------------|
C|-------------------------------------------------------|
G|-----3------4------6-----------------------------------|
D|-1-1-1--2-2-2--4-4-4--4-4------------------------------|
   . .    . .    . .    . .
						(1x)
Riff K
d|-------------------------------------------------------|
A|-------------------------------------------------------|
F|-------------------------------------------------------|
C|-------------------------------------------------------|
G|-8----3----6-------------------------------------------|
D|-6----1----4-------------------------------------------|
						(1x)
Riff L
d|-------------------------------------------------------|
A|-------------------------------------------------------|
F|-------------------------------------------------------|
C|-------------------------------------------------------|
G|-----3------4------6-----------------------------------|
D|-1-1-1--2-2-2--4-4-4--4-4------------------------------|
   . .    . .    . .    . .
						(1x)
Riff B
Flute solo
d|-12--------12------------------------------------------|
A|----12-12-----12-15-12----------12-15-15---------------|
F|-----------------------14-12h14------------------------|
C|-------------------------------------------------------|
G|-------------------------------------------------------|
D|-------------------------------------------------------|

d|-12--------12------------------------------------------|
A|----12-12-----12-15-12----------12---------------------|
F|-----------------------14-12h14----12-12---------------|
C|-------------------------------------------------------|
G|-------------------------------------------------------|
D|-------------------------------------------------------|

Riff C (play riff B + C together)
d|-------------------------------------------------------|
A|-------------------------------------------------------|
F|-------------------------------------------------------|
C|-------------------------------------------------------|
G|-7---------------7-5-7--5---7---------------7-5-7--8---|
D|-5--5-5-5-5-5-5--5-3-5--3---5--5-5-5-5-5-5--5-3-5--6---|
      . . . . . .                . . . . . .
						(2x)
Riff D
d|-------------------------------------------------------|
A|-------------------------------------------------------|
F|-------------------------------------------------------|
C|-4--------4--------------------------------------------|
G|---5-5-5----5--8\5\3--5p3--5-8-8-----------------------|
D|-------------------------------------------------------|

d|-------------------------------------------------------|
A|-------------------------------------------------------|
F|-------------------------------------------------------|
C|-4--------4--------------------------------------------|
G|---5-5-5----5--8\5\3--5p3--5---------------------------|
D|-----------------------------6-6-----------------------|
						(2x)

Riff B
Flute solo
d|-12--------12------------------------------------------|
A|----12-12-----12-15-12----------12-15-15---------------|
F|-----------------------14-12h14------------------------|
C|-------------------------------------------------------|
G|-------------------------------------------------------|
D|-------------------------------------------------------|

d|-12--------12------------------------------------------|
A|----12-12-----12-15-12----------12---------------------|
F|-----------------------14-12h14----12-12---------------|
C|-------------------------------------------------------|
G|-------------------------------------------------------|
D|-------------------------------------------------------|

Riff B
Flute solo
d|-12--------12------------------------------------------|
A|----12-12-----12-15-12----------12-15-15---------------|
F|-----------------------14-12h14------------------------|
C|-------------------------------------------------------|
G|-------------------------------------------------------|
D|-------------------------------------------------------|

d|-12--------12------------------------------------------|
A|----12-12-----12-15-12----------12---------------------|
F|-----------------------14-12h14----12-12---------------|
C|-------------------------------------------------------|
G|-------------------------------------------------------|
D|-------------------------------------------------------|

Riff C (play riff B + C together)
d|-------------------------------------------------------|
A|-------------------------------------------------------|
F|-------------------------------------------------------|
C|-------------------------------------------------------|
G|-7---------------7-5-7--5---7---------------7-5-7--8---|
D|-5--5-5-5-5-5-5--5-3-5--3---5--5-5-5-5-5-5--5-3-5--6---|
      . . . . . .                . . . . . .
						(2x)

Riff D
d|-------------------------------------------------------|
A|-------------------------------------------------------|
F|-------------------------------------------------------|
C|-4--------4--------------------------------------------|
G|---5-5-5----5--8\5\3--5p3--5-8-8-----------------------|
D|-------------------------------------------------------|

d|-------------------------------------------------------|
A|-------------------------------------------------------|
F|-------------------------------------------------------|
C|-4--------4--------------------------------------------|
G|---5-5-5----5--8\5\3--5p3--5----------------8----------|
D|-----------------------------6-6------------6----------|
						(2x)

  Visit MetalTabs.com for more metal tablature

bottom separator

Contact Us | Privacy Policy | Disclaimer | Legal Notice
Copyright © 2001-2014 MetalTabs.com. All Rights Reserved.