top separator

Home

Forum

What's New

Submit a Tab

FAQ

Links

Contact Us

Link to Us

MetalTabs.com logo

Bands

0-9

A

B

C

D

E

F

G

H

I

J

K

L

M

N

O

P

Q

R

S

T

U

V

W

X

Y

Z

Search

What

Where
 

Benediction - "Down on whores (leave them all for dead)" Guitar Tab

Plain Text Version
More Benediction Tabs

Hits: 4895
Rated: 4.20 out of 5 (5 votes)
Updated: 2003-01-27 06:50:42

 

Important note
This tab is available online because we obtained explicit permission from Benediction or their label.


#----------------------------------PLEASE NOTE---------------------------------#
#This file is the author's own work and represents their interpretation of the #
#song. You may only use this file for private study, scholarship, or research. #
#Unless specified otherwise, this is NOT an official tab from the band members.#
#------------------------------------------------------------------------------#

  Visit MetalTabs.com for more metal tablature
  
Benediction - Down on whores (Leave them all for dead)
from the album 'The Dreams You Dread'

Tabbed by Schizodave (dave666@tin.it)

Tuned (D G C F A D)

Intro (Guitar1)
||---------------|---------------||
||--------2------|--------0------||
||--4---4-----4--|--3---3---3---3||
||4---4-----4---4|3---3-------3--||
||---------------|---------------||
||---------------|---------------||

Intro (Guitar 2)
||--------------|----------------------||
||--------------|----------------------||
||--------------|----------------------||
||4~~~~~~~~~~~~~|3---------------------||
||2~~~~~~~~~~~~~|1---------------------||
||--------------|----------------------||

Riff 1
||-----------|---------------||
||-----------|---------------||
||-----------|------3-------3||
||------4~~~~|--------3-0-3--||
||2-2-2-2~~~~|2-2-2----------||
||0-0-0------|0-0-0----------||

Riff 1a (play 4 times)
||-----------|-----------|-----------|---------------||
||-----------|-----------|-----------|---------------||
||-----------|-----------|-----------|------4-------4||
||------4~~~~|------3~~~~|------4~~~~|--------4-0-4--||
||2-2-2-2~~~~|2-2-2-1~~~~|2-2-2-2~~~~|2-2-2----------||
||0-0-0------|0-0-0------|0-0-0------|0-0-0----------||

Pre Verse
||-------------|-------------------|-------------|-------------------||
||-------------|-------------------|-------------|-------------------||
||-------------|-------------------|-------------|-------------------||
||------------3|-------------------|------------4|-------------------||
||5-4-2-----2-1|-------------------|5-4-2-----2-2|-------------------||
||3-2-0-0-0-0--|0-0-0-0-0-0-0-0-0-0|3-2-0-0-0-0--|0-0-0-0-0-0-0-0-0-0||

Verse
||-----------------|---------------|---------------|---------------||
||-----------------|---------------|---------------|---------------||
||-----------------|---------------|---------------|---------------||
||-----------------|---------------|---------------|------------3-4||
||4-3-2-222-222-224|3-2-222-222-224|3-2-222-222-224|3-2-222-222-1-2||
||2-1-0-000-000-002|1-0-000-000-002|1-0-000-000-002|1-0-000-000----||

Chorus
||---------------------------||
||---------------------------||
||---------------------------||
||---------------------------||
||4444444444444444777777777-5||
||2222222222222222555555555-3||

Verse A
||-----------------|---------------|---------------|---------------||
||-----------------|---------------|---------------|---------------||
||-----------------|---------------|---------------|---------------||
||-----------------|---------------|---------------|---------------||
||4-3-2-222-222-224|3-2-222-222-224|3-2-222-222-224|3-2-222-222-224||
||2-1-0-000-000-002|1-0-000-000-002|1-0-000-000-002|1-0-000-000-002||

Bridge 1
||--------------------|--------------------|
||--------------------|--------------------|
||--------------------|--------------------|
||--------------------|--------------------|
||5-4-4444444444444444|3-2-2222222222222222|
||3-2-2222222222222222|1-0-0000000000000000|

|--------------------|---------------------||
|--------------------|---------------------||
|--------------------|---------------------||
|--------------------|---------------------||
|5-4-4444444444444444|555577777777777777777||
|3-2-2222222222222222|333355555555555555555||

Bridge 2						End A
||---------------|---------------|---------------||----------------||
||---------------|---------------|---------------||----------------||
||---------------|---------------|---------------||----------------||
||---------------|---------------|---------------||----------------||
||5-4------------|3-2------------|5-4------------||5--7------------||
||3-2------------|1-0------------|3-2------------||3--5------------||

End B
||------------------||
||------------------||
||------------------||
||------------------||
||5--7-7-7-7-7-7-7-7||
||3--5-5-5-5-5-5-5-5||

Verse B
||-------------|-------------|-------------|----------------||
||-------------|-------------|-------------|----------------||
||-------------|-------------|-------------|----------------||
||-------------|-------------|-------------|-------------3-4||
||4-3-222222224|3-2-222222224|3-2-222222224|3-2-22222222-1-2||
||2-1-000000002|1-0-000000002|1-0-000000002|1-0-00000000----||

How it's played:
Intro (Guitar 1) x 2
Intro (Guitar 1&2) x 6
Riff 1 x 4
Riff 1a x 4
Pre Verse x 2
Stop
Pre Verse x 2
Verse x 2
Chorus x 1
Verse x 1
Verse A x 1
Verse x 1
Chorus  x 1
Verse A x 1
Bridge 1 x  2
Bridge 2 (End A) x 1
Bridge 2 (End B) x 1
Verse x 2
Bridge 1 x 2
Bridge 2 (End A) x 3
Bridge 2 (End B) x 1
Verse x 2
Verse B x 2
Chorus x 1

  Visit MetalTabs.com for more metal tablature

bottom separator

Contact Us | Privacy Policy | Disclaimer | Legal Notice
Copyright © 2001-2014 MetalTabs.com. All Rights Reserved.