top separator

Home

Forum

FAQ

Contact Us

Link to Us

MetalTabs.com logo

Bands

0-9

A

B

C

D

E

F

G

H

I

J

K

L

M

N

O

P

Q

R

S

T

U

V

W

X

Y

Z

Aesma Daeva - "Lysander" Guitar Tab

Plain Text Version
More Aesma Daeva Tabs

Hits: 3865
Rated: 5.00 out of 5 (1 vote)
Updated: 2003-01-06 13:48:10


#----------------------------------PLEASE NOTE---------------------------------#
#This file is the author's own work and represents their interpretation of the #
#song. You may only use this file for private study, scholarship, or research. #
#Unless specified otherwise, this is NOT an official tab from the band members.#
#------------------------------------------------------------------------------#

  Visit MetalTabs.com for more metal tablature
  
Copyright  John W Prassas

This is the latest version of lysander by aesma daeva of the album
The Eros Of Frigid Beauty
 the first version is shorter with different guitar parts

         guitars enter with trumpets
E ------|-------------|---|-----|-----|---|------|-----|-----|---|----
B ------|-----------0-|---|-----|-----|---|------|-----|-----|---|----
G ------|-----------0-|---|-----|-----|---|------|-----|-----|---|----
D ------|-2-5-4---0-2-|---|-----|-----|---|------|-----|-----|---|----
A ------|-0-3-3-7-9---|-2-|-----|-----|---|------|-----|-----|---|----
E ------|---3-3-3-2-3-|-0-|-0-0-|-1-0-|-0-|------|-0-0-|-1-0-|-0-|----

E --|---------|---------|---------|-------------|-----|---------|-----
B --|---------|---------|---------|-------------|-----|---------|-----
G --|---------|---------|---------|-------------|-----|---------|-----
D --|---------|---------|---------|-------------|-----|---------|-----
A --|---------|---------|---------|-------------|-----|---------|-----
E --|-0-0-0-0-|-1-0-0-0-|-0-0-0-0-|-5-0-0-0-0-0-|-0-0-|-1-0-0-0-|-0-0-


                               chorus starts at 1:20
E ----|-------------|---|------|---------------------------------|----
B ----|-------------|---|------|---------------------------------|----
G ----|-------------|---|------|---------------------------------|----
D ----|-------------|---|------|---------------------------------|----
A ----|-------------|-2-|------|-7-7-7-7-7-7-7-7-7-7-7-7-8-8-8-8-|-7-7
E 0-0-|-5-0-0-0-0-0-|-0-|------|---------------------------------|----

E -----------------------------|---------------------------------|----
B -----------------------------|---------------------------------|----
G -----------------------------|---------------------------------|----
D -----------------------------|---------------------------------|----
A -7-7-7-7-7-7-5-5-5-5-8-8-8-8-|-5-5-5-5-5-5-5-5-5-5-5-5-6-6-6-6-|-5-5
E -----------------------------|---------------------------------|----

E -----------------------------|---------------------------------|----
B -----------------------------|---------------------------------|----
G -----------------------------|---------------------------------|----
D -----------------------------|---------------------------------|----
A -5-5-5-5-5-5-3-3-3-3-6-6-6-6-|-3-3-3-3-3-3-3-3-3-3-3-3-4-4-4-4-|-3-3
E -----------------------------|---------------------------------|----

E -----------------------------|---------------------------------|----
B -----------------------------|---------------------------------|----
G -----------------------------|---------------------------------|----
D -----------------------------|---------------------------------|----
A -3-3-3-3-3-3-1-1-1-1-4-4-4-4-|-7-7-7-7-7-7-7-7-7-7-7-7-8-8-8-8-|-7-7
E -----------------------------|---------------------------------|----

E -----------------------------|---------------------------------|----
B -----------------------------|---------------------------------|----
G -----------------------------|---------------------------------|----
D -----------------------------|---------------------------------|----
A -7-7-7-7-7-7-5-5-5-5-8-8-8-8-|-5-5-5-5-5-5-5-5-5-5-5-5-6-6-6-6-|-5-5
E -----------------------------|---------------------------------|----

E -----------------------------|---------------------------------|----
B -----------------------------|---------------------------------|----
G -----------------------------|---------------------------------|----
D -----------------------------|---------------------------------|----
A -5-5-5-5-5-5-3-3-3-3-6-6-6-6-|-3-3-3-3-3-3-3-3-3-3-3-3-4-4-4-4-|-3-3
E -----------------------------|---------------------------------|----

E -----------------------------|-----------------------------------|--
B -----------------------------|-----------------------------------|--
G -----------------------------|-----------------------------------|--
D -----------------------------|-----------------------------------|--
A -3-3-3-3-3-3-1-1-1-1-4-4-4-4-|-6-6-6-6-0-0-0-0-8-8-8-8-0-0-0-0-7-|-7
E -----------------------------|-----------------------------------|--

                                                                  Ly -
E --------------------------------|----------------------------------|
B --------------------------------|----------------------------------|
G --------------------------------|----------------------------------|
D --------------------------------|----------------------------------|
A -7-7-0-0-0-0-7-7-7-7-2-2-2-2-11-|-11-11-11-7-7-7-7-2-2-2-2---------|
E --------------------------------|--------------------------4-4-4-4-|

Sander I
E ---|-------------------|---------------------|----------------------
B ---|-------------------|---------------------|----------------------
G ---|-------------------|---------------------|----------------------
D ---|-------------------|---------------------|----------------------
A -7-|-------8---------5-|-------12---------12-|-7-7-7-7-10-10-10-10-9
E -5-|-7-7-7---7-7-7-7-7-|-8-8-8----8-8-8-8-12-|----------------------

                                    cruel  thus to fly me      ahh
E ---------------|-----------------|------|-------------------|---|-1-
B ---------------|-----------------|------|-------------------|---|---
G ---------------|-----------------|------|-------------------|-9-|---
D ---------------|-----------------|------|-------------------|---|---
A -9-9-9-7-7-7-7-|-6-6-6-6-6-6-6-6-|------|-------------------|---|---
E ---------------|-----------------|------|-0-3-2-0-0-0-3-2-0-|---|---

                                         let
E 1-0-|-0-|-5-7-3-|-0-|-1-1-0-|-0-|-----|---|-------|-------|---------
B ----|---|-------|---|-------|---|-----|---|-------|-------|---------
G ----|---|-------|---|-------|---|-----|---|-------|-------|---------
D ----|---|-------|---|-------|---|-----|---|-------|-------|---------
A ----|---|-------|---|-------|---|-2---|---|-------|-------|---------
E ----|---|-------|---|-------|---|---3-|-0-|-2-3-7-|-8-7-0-|-0-0-0-0-

                      she must not
E ----------------|-----|---------------------|-------|---------------
B ----------------|-----|---------------------|-------|---------------
G ----------------|-----|---------------------|-------|---------------
D ----------------|-----|---------------------|-------|---------------
A ----------------|-----|---------------------|-------|---------------
E 0-0-0-0-0-0-1-0-|-0-0-|-1-0-0-0-2-3-0-0-0-7-|-8-7-0-|-0-0-0-0-0-0-0-

          she must                 obtian                        never,never,never
E ----------|---------------------|---|-------------------------|-----
B ----------|---------------------|---|-------------------------|-----
G ----------|---------------------|---|-------------------------|-----
D ----------|---------------------|---|-------------------------|-----
A ----------|---------------------|---|-------------------------|-----
E 0-0-0-1-2-|-3-2-2-2-4-5-4-4-4-9-|-9-|-0-0-0-0-0-0-0-0-0-0-1-0-|-----

                                     frigid
E -|--------------------------------|---|-------|-------|-------------
B -|--------------------------------|-0-|-------|-------|-------------
G -|--------------------------------|---|-------|-------|-------------
D -|--------------------------------|---|-------|-------|-------------
A -|--------------------------------|-2-|-------|-------|-------------
E -|-7-7-7-7-9-9-9-9-10-10-10-10-12-|-0-|-2-3-7-|-8-7-0-|-0-0-0-0-0-0-

                 who are
E ------------|---|-------|-------|-------------------------|-----|---
B ------------|---|-------|-------|-------------------------|-----|---
G ------------|---|-------|-------|-------------------------|-----|---
D ------------|-2-|-------|-------|-------------------------|-----|---
A ------------|-2-|-------|-------|-------------------------|---0-|-4-
E 0-0-0-0-1-0-|-0-|-2-3-7-|-8-7-0-|-0-0-0-0-0-0-0-0-0-0-1-2-|-3---|---

E |-----------------|---------------------------|-------------------|-
B |-----------------|---------------------------|-------------------|-
G |-----------------|---------------------------|-------------------|-
D |-----------------|-----------------0-0-0-0-2-|-------------------|-
A |-----------------|-2-2-2-2-4-4-4-4-----------|-------------------|-
E |-0-0-0-0-2-2-2-2-|---------------------------|-0-3-2-0-0-0-3-2-0-|-

                                           chorus 2:58


instrumental section - harpsichord enters 3:43
|---------|-------0
|---------|--------
|---------|--------
|---------|-----9--
|---------|---7----
|-0-2-3-8-|-5------

E -|-----|---------|---------|---|------|-------|---|------|------|---
B -|-3---|---------|---------|---|------|-------|---|------|------|---
G -|---5-|-4-------|---------|---|------|-------|---|------|------|---
D -|-----|---------|---------|---|------|-------|---|------|------|---
A -|-----|---3-5---|---------|---|------|-3-5---|---|------|------|---
E -|-----|-------3-|-0-2-3-8-|-5-|------|-----3-|-0-|------|------|---


4:14
Voice humms along with guitars - this is the trumpet melody at half tempo with guitars
this is guitar 1
|--------
|--------
|--------
|-2-2-1-2
|--------
|--------

E -|-------|---------|-----------|---------|---------|---------|------
B -|-------|---------|-----------|---------|---------|---------|------
G -|-------|---------|-----------|---------|---------|---------|------
D -|-5-4-2-|---------|-2-0-2-0---|-2-2-2-2-|-5-4-2-2-|-2-5-5-4-|-2-2-1
A -|-------|-3-3-2-3-|---------3-|---------|---------|---------|------
E -|-------|---------|-----------|---------|---------|---------|-----


this is guitar 2

E -|---------|-------|---------|-------|---------|---------|----------
B -|---------|-------|---------|-------|---------|---------|----------
G -|---------|-------|---------|-------|---------|---------|----------
D -|---------|-------|---2-4-5-|-2-4-5-|---------|---------|----------
A -|-7-7-9-2-|-5-4-2-|-3-0-2-3-|-0-2-3-|-7-7-7-7-|-5-4-2-7-|-7-5-5-0-0
E -|-0-0-7-0-|-3-2-0-|-1-------|-------|-5-0-0-0-|-3-2-0-5-|-5-3-3-2-2

E -|-------|---------|-------|---------|-------|---------|---------|--
B -|-------|---------|-------|---------|-------|---------|---------|--
G -|-------|---------|-------|---------|-------|---------|---------|--
D -|-------|---------|-------|---2-4-5-|-2-4-5-|---------|---------|--
A -|-9-9-9-|-7-7-9-2-|-5-4-2-|-3-0-2-3-|-0-2-3-|-7-7-7-7-|-5-4-2-7-|-7
E -|-7-7-7-|-0-0-7-0-|-3-2-0-|-1-------|-------|-5-0-0-0-|-3-2-0-5-|-5

E ---------|-------|---------|-------|---------|-------|---------|----
B ---------|-------|---------|-------|---------|-------|---------|----
G ---------|-------|---------|-------|---------|-------|---------|----
D ---------|-------|---------|-------|---2-4-5-|-2-4-5-|---------|----
A -5-5-0-0-|-9-9-9-|-7-7-9-2-|-5-4-2-|-3-0-2-3-|-0-2-3-|-7-7-7-7-|-5-4
E -3-3-2-2-|-7-7-7-|-0-0-7-0-|-3-2-0-|-1-------|-------|-5-0-0-0-|-3-2

                             harpsichord break 4:54
E -----|-----------|-------|------|------|------|------|------|---|---
B -----|-----------|-------|------|------|------|------|------|---|---
G -----|-----------|-------|------|------|------|------|------|---|---
D -----|-----------|-------|------|------|------|------|------|---|-2-
A -2-7-|-7-5-5-0-0-|-9-9-9-|------|------|------|------|------|-0-|---
E -0-5-|-5-3-3-2-2-|-7-7-7-|------|------|------|------|------|---|---

                                   5:10 instrumental section again but with harmonies
E ----------|-------|------|------|---------|------------|------|-----
B ----------|-------|------|------|---------|------------|------|-----
G ----------|-------|------|------|---------|---------12-|------|-----
D --0-------|-------|------|------|---------|------12----|------|-----
A 0---------|-2-2-2-|------|------|---------|---10-------|-10-9-|-7-3-
E ----3-2-2-|-------|------|------|-0-2-3-8-|-5----------|------|-----

E ----|---------|---------|-----|---------|------|------|------|------
B ----|---------|---------|-----|---------|------|------|------|------
G ----|---------|---------|-----|---------|------|------|------|------
D ----|---------|---------|-----|-2-------|------|------|------|------
A 5---|---------|---2-----|---2-|---3-5---|------|------|------|------
E --3-|-0-2-3-8-|-5---3-0-|-3---|-------3-|------|------|------|------


that is bassically it for the entire piece. I have not had time to tab out
the synth solo, but these are the bassic riffs feel free to add different
fingerings to this etc

  Visit MetalTabs.com for more metal tablature

bottom separator

Contact Us | Privacy Policy | Disclaimer
Copyright © 2001-2014 MetalTabs.com. All Rights Reserved.