top separator

Home

Forum

What's New

Submit a Tab

FAQ

Links

Contact Us

Link to Us

MetalTabs.com logo

Bands

0-9

A

B

C

D

E

F

G

H

I

J

K

L

M

N

O

P

Q

R

S

T

U

V

W

X

Y

Z

Search

What

Where
 

Napalm Death - "Politicians (Raw Power)" Guitar Tab

Plain Text Version
More Napalm Death Tabs

Hits: 4815
Rated: 3.00 out of 5 (1 vote)
Updated: 2003-01-03 13:46:42

 

Important note
This tab is available online because we obtained explicit permission from Napalm Death or their label.


#----------------------------------PLEASE NOTE---------------------------------#
#This file is the author's own work and represents their interpretation of the #
#song. You may only use this file for private study, scholarship, or research. #
#Unless specified otherwise, this is NOT an official tab from the band members.#
#------------------------------------------------------------------------------#

  Visit MetalTabs.com for more metal tablature
  
Napalm death - Politicians


tabbed by : Koen Bierbooms
e-mail    : killthewell@hotmail.com
from album: Leaders Not Followers

Standard tuning




   Verse 1
E--------------------------
B--------------------------
G--------------------------
D--------------------------
A-6--6--9--9--11--11--9--9-
E-4--4--7--7---9---9--7--7-

   Verse 2
E-------------------------------------------------------------------------
B-------------------------------------------------------------------------
G-------------------------------------------------------------------------
D-------------------------------------------------------------------------
A-6-6-6-6-6-6-6-6-9-9-9-9-9-9-9-9-11-11-11-11-11-11-11-11-9-9-9-9-9-9-9-9-
E-4-4-4-4-4-4-4-4-7-7-7-7-7-7-7-7--9--9--9--9--9--9--9--9-7-7-7-7-7-7-7-7-

   Verse 3
E----------------------------------16-13-10-
B-------------------------------------------
G-------------------------------------------
D--------------------------17~~-------------
A-6-7-8-9-10-11-12-13-14--------14----------
E-4-5-6-7--8--9-10-11-12--------12----------

not sure about the last part of this one

   Verse 4
E--------------------------
B--------------------------
G--------------------------
D--------------------------
A-6--9--6--11--------------
E-4--7--4---9--------------

   Verse 5
E--------------------------
B--------------------------
G--------------------------
D-----2-------5------------
A-2---0---3---3------------
E-0-------1----------------

Not sure about this one either

Song order:

Verse 1   4x
Verse 2   1x
Verse 3   1x
Verse 4   6x
Verse 5   2x
Verse 3   1x
Verse 4   4x
Stop      1 sec.
Verse 4   4x

this is my first tab so mail me for corrections

  Visit MetalTabs.com for more metal tablature

bottom separator

Contact Us | Privacy Policy | Disclaimer | Legal Notice
Copyright © 2001-2014 MetalTabs.com. All Rights Reserved.