top separator

Home

Forum

What's New

Submit a Tab

FAQ

Links

Contact Us

Link to Us

MetalTabs.com logo

Bands

0-9

A

B

C

D

E

F

G

H

I

J

K

L

M

N

O

P

Q

R

S

T

U

V

W

X

Y

Z

Search

What

Where
 

Finntroll - "Kitteldags" Guitar Tab

Plain Text Version
More Finntroll Tabs

Hits: 7194
Rated: 3.78 out of 5 (9 votes)
Updated: 2003-01-03 13:24:55

 

By:

Darkenelf

sendpm.gif

email.gif

Important note
This tab is available online because we obtained explicit permission from Finntroll or their label.


#----------------------------------PLEASE NOTE---------------------------------#
#This file is the author's own work and represents their interpretation of the #
#song. You may only use this file for private study, scholarship, or research. #
#Unless specified otherwise, this is NOT an official tab from the band members.#
#------------------------------------------------------------------------------#

  Visit MetalTabs.com for more metal tablature
  
Band: Finntroll
Album: Jaktens Tid
Song: Kitteldags
Tabbed by: Martijn Wietsma
Email: dalvanian@yahoo.com
Date: 09-08-2002

Riff A
d|-------------------------------------------------------|
A|-------------------------------------------------------|
F|-------------------------------------------------------|
C|-------------------------------------------------------|
G|-5-----------8-7----5-----------8-7--------------------|
D|-3--3-3-3-3--6-5----3--3-3-3-3--6-5--------------------|

d|-------------------------------------------------------|
A|-------------------------------------------------------|
F|-------------------------------------------------------|
C|--------------------12--10--8--7-----------------------|
G|-5-----------8-7----10---8--6--5-----------------------|
D|-3--3-3-3-3--6-5---------------------------------------|

d|-------------------------------------------------------|
A|-------------------------------------------------------|
F|-------------------------------------------------------|
C|-------------------------------------------------------|
G|-5-----------8-7----5-----------8-7--------------------|
D|-3--3-3-3-3--6-5----3--3-3-3-3--6-5--------------------|

d|-------------------------------------------------------|
A|-------------------------------------------------------|
F|-------------------------------------------------------|
C|-------------------------------------------------------|
G|-5-----------8-7----5---------------6-5----------------|
D|-3--3-3-3-3--6-5----3--3-3-3--6-4-3-----6--------------|
                         x x x  x x x x x x

d|-------------------------------------------------------|
A|-------------------------------------------------------|
F|-------------------------------------------------------|
C|-------------------------------------------------------|
G|-5-----------8-7----5-----------8-7--------------------|
D|-3--3-3-3-3--6-5----3--3-3-3-3--6-5--------------------|

d|-------------------------------------------------------|
A|-------------------------------------------------------|
F|-------------------------------------------------------|
C|-------------------------------------------------------|
G|-5-----------8-7----5---------------6-5----------------|
D|-3--3-3-3-3--6-5----3--3-3-3--6-4-3-----6--------------|
                                        (hard to hear)

Riff B
d|-------------------------------------------------------|
A|-------------------------------------------------------|
F|-------------------------------------------------------|
C|---------------6------------------------6--------------|
G|-4-4-4-4--5-4--4--5-4-----4-4-4-4--5-4--4--5-4---------|
D|-2-2-2-2--3-2-----3-2-----2-2-2-2--3-2-----3-2---------|

d|-------------------------------------------------------|
A|-------------------------------------------------------|
F|-------------------------------------------------------|
C|---------------6------------------------6--------------|
G|-4-4-4-4--5-4--4--5-4-----4-4-4-4--5-4--4--5-4---------|
D|-2-2-2-2--3-2-----3-2-----2-2-2-2--3-2-----3-2---------|

Riff C
d|---------------------------------------------------------------|
A|---------------------------------------------------------------|
F|---------------------------------------------------------------|
C|---------------------------------------------------------------|
G|-4-----------------4-----------------4---------------5-5-5-----|
D|-2--2-2---2-2-2----2--2-2---2-2-2----2--2-2---2-2-2--------3-2-|
      x x   x x x       x x   x x x       x x   x x x

d|---------------------------------------------------------------|
A|---------------------------------------------------------------|
F|---------------------------------------------------------------|
C|---------------------------------------------------------------|
G|-4-----------------4-----------------4---------------5-5-5-----|
D|-2--2-2---2-2-2----2--2-2---2-2-2----2--2-2---2-2-2--------3-2-|
      x x   x x x       x x   x x x       x x   x x x

d|---------------------------------------------------------------|
A|---------------------------------------------------------------|
F|---------------------------------------------------------------|
C|---------------------------------------------------------------|
G|-4-----------------4-----------------4---------------5-5-5-----|
D|-2--2-2---2-2-2----2--2-2---2-2-2----2--2-2---2-2-2--------3-2-|
      x x   x x x       x x   x x x       x x   x x x

d|---------------------------------------------------------------|
A|---------------------------------------------------------------|
F|---------------------------------------------------------------|
C|---------------------------------------------------------------|
G|-4-----------------4-----------------4---------------5-5-5-----|
D|-2--2-2---2-2-2----2--2-2---2-2-2----2--2-2---2-2-2--------3-2-|
      x x   x x x       x x   x x x       x x   x x x

Riff B
d|-------------------------------------------------------|
A|-------------------------------------------------------|
F|-------------------------------------------------------|
C|---------------6------------------------6--------------|
G|-4-4-4-4--5-4--4--5-4-----4-4-4-4--5-4--4--5-4---------|
D|-2-2-2-2--3-2-----3-2-----2-2-2-2--3-2-----3-2---------|

d|-------------------------------------------------------|
A|-------------------------------------------------------|
F|-------------------------------------------------------|
C|---------------6------------------------6--------------|
G|-4-4-4-4--5-4--4--5-4-----4-4-4-4--5-4--4--5-4---------|
D|-2-2-2-2--3-2-----3-2-----2-2-2-2--3-2-----3-2---------|

Riff C
d|---------------------------------------------------------------|
A|---------------------------------------------------------------|
F|---------------------------------------------------------------|
C|---------------------------------------------------------------|
G|-4-----------------4-----------------4---------------5-5-5-----|
D|-2--2-2---2-2-2----2--2-2---2-2-2----2--2-2---2-2-2--------3-2-|
      x x   x x x       x x   x x x       x x   x x x

d|---------------------------------------------------------------|
A|---------------------------------------------------------------|
F|---------------------------------------------------------------|
C|---------------------------------------------------------------|
G|-4-----------------4-----------------4---------------5-5-5-----|
D|-2--2-2---2-2-2----2--2-2---2-2-2----2--2-2---2-2-2--------3-2-|
      x x   x x x       x x   x x x       x x   x x x

d|---------------------------------------------------------------|
A|---------------------------------------------------------------|
F|---------------------------------------------------------------|
C|---------------------------------------------------------------|
G|-4-----------------4-----------------4---------------5-5-5-----|
D|-2--2-2---2-2-2----2--2-2---2-2-2----2--2-2---2-2-2--------3-2-|
      x x   x x x       x x   x x x       x x   x x x

d|---------------------------------------------------------------|
A|---------------------------------------------------------------|
F|---------------------------------------------------------------|
C|---------------------------------------------------------------|
G|-4-----------------4-----------------4---------------5-5-5-----|
D|-2--2-2---2-2-2----2--2-2---2-2-2----2--2-2---2-2-2--------3-2-|
      x x   x x x       x x   x x x       x x   x x x

Riff D
d|-------------------------------------------------------|
A|-------------------------------------------------------|
F|-------------------------------------------------------|
C|-----/8-------/8-------/8----12--10--8--7--------------|
G|-5--5/6---5--5/6---5--5/6----10---8--6--5--------------|
D|-3--3/----3--3/----3--3/-------------------------------|

Riff E
d|-------------------------------------------------------------------|
A|-------------------------------------------------------------------|
F|-------------------------------------------------------------------|
C|---------------------------------------------------------12-10-8-7-|
G|----5-6--5p3-----------5-6--5p3----------5-6--5p3--------10--8-6-5-|
D|-3-----------6p5p---3-----------6p5p---3----------6p5p3------------|

  Visit MetalTabs.com for more metal tablature

bottom separator

Contact Us | Privacy Policy | Disclaimer | Legal Notice
Copyright © 2001-2014 MetalTabs.com. All Rights Reserved.