top separator

Home

Forum

What's New

Submit a Tab

FAQ

Links

Contact Us

Link to Us

MetalTabs.com logo

Bands

0-9

A

B

C

D

E

F

G

H

I

J

K

L

M

N

O

P

Q

R

S

T

U

V

W

X

Y

Z

Search

What

Where
 

Finntroll - "Kyrkovisan" Guitar Tab

Plain Text Version
More Finntroll Tabs

Hits: 5508
Rated: 3.33 out of 5 (3 votes)
Updated: 2003-01-03 13:24:32

 

By:

Darkenelf

sendpm.gif

email.gif

Important note
This tab is available online because we obtained explicit permission from Finntroll or their label.


#----------------------------------PLEASE NOTE---------------------------------#
#This file is the author's own work and represents their interpretation of the #
#song. You may only use this file for private study, scholarship, or research. #
#Unless specified otherwise, this is NOT an official tab from the band members.#
#------------------------------------------------------------------------------#

  Visit MetalTabs.com for more metal tablature
  
Band: Finntroll
Album: Jaktens Tid
Song: Kyrkovisan
Tabbed by: Martijn Wietsma
Email: Dalvanian@yahoo.com
Date: 08-08-2002

Riff A
d|-----------------------------------------------------------|
A|-----------------------------------------------------------|
F|----2---------------------------2--------------------------|
C|-5--2--6--3--5---------------5--2--6--3--------------------|
G|-3--0--4--1--3--4--2--7------3--0--4--1--4--2--7-----------|
D|----------------2--0--5------------------2--0--5-----------|
								(4x)
Riff B
d|-----------------------------------------------------------|
A|-----------------------------------------------------------|
F|-----------------------------------------------------------|
C|-7----10----4-----------2----------------------------------|
G|-5-----8----2----2-4-5-------------------------------------|
D|-----------------------------------------------------------|
                   x x x  x

Riff A
d|-----------------------------------------------------------|
A|-----------------------------------------------------------|
F|----2---------------------------2--------------------------|
C|-5--2--6--3--5---------------5--2--6--3--------------------|
G|-3--0--4--1--3--4--2--7------3--0--4--1--4--2--7-----------|
D|----------------2--0--5------------------2--0--5-----------|
								(4x)

  Visit MetalTabs.com for more metal tablature

bottom separator

Contact Us | Privacy Policy | Disclaimer | Legal Notice
Copyright © 2001-2014 MetalTabs.com. All Rights Reserved.