top separator

Home

Forum

What's New

Submit a Tab

FAQ

Links

Contact Us

Link to Us

MuSpy.com

MetalTabs.com logo

Bands

0-9

A

B

C

D

E

F

G

H

I

J

K

L

M

N

O

P

Q

R

S

T

U

V

W

X

Y

Z

Search

What

Where
 

Finntroll - "Jaktens Tid" Guitar Tab

Plain Text Version
More Finntroll Tabs

Hits: 11446
Rated: 3.25 out of 5 (12 votes)
Updated: 2003-01-03 13:24:09

 

By:

Darkenelf

sendpm.gif

email.gif

Important note
This tab is available online because we obtained explicit permission from Finntroll or their label.


#----------------------------------PLEASE NOTE---------------------------------#
#This file is the author's own work and represents their interpretation of the #
#song. You may only use this file for private study, scholarship, or research. #
#Unless specified otherwise, this is NOT an official tab from the band members.#
#------------------------------------------------------------------------------#

  Visit MetalTabs.com for more metal tablature
  
Band: Finntroll
Album: Jaktens Tid
Song: Jaktens Tid
Tabbed by: Martijn Wietsma
Email: dalvanian@yahoo.com
Date: 08-08-2002

Riff A
d|-----------------------------------------------------------|
A|-----------------------------------------------------------|
F|-----------------------------------------------------------|
C|-----------------------------------6--8--5-----------------|
G|----2--------2--------2--------2---4--6--3--6-6------------|
D|-0--0-----0--0-----0--0-----0--0------------4-4------------|
   x        x        x        x

Riff B
d|--------------------------------------------------------------|
A|--------------------------------------------------------------|
F|--------------------------------------------------------------|
C|--------------------------------------6-----5-----8-----10-10-|
G|-2--------------2---------------------4-4-4-3-3-3-6-6-6--8--8-|
D|-0-0-0-0--0-0---0-0-0-0--0-0---0-0-0--------------------------|
     x x x  x x     x x x  x x   x x x

d|--------------------------------------------------------------|
A|--------------------------------------------------------------|
F|--------------------------------------------------------------|
C|--------------------------------------6-----8-----5-----------|
G|-2--------------2---------------------4-4-4-6-6-6-3-3-3--6-6--|
D|-0-0-0-0--0-0---0-0-0-0--0-0---0-0-0---------------------4-4--|
     x x x  x x     x x x  x x   x x x

Riff C
d|------------------------------------------------------------|
A|------------------------------------------------------------|
F|------------------------------------------------------------|
C|------------------------------------------------------------|
G|-8-----8-----8------6/7-4/7---8-----8-----8-----10/11/10/11-|
D|-6-6-6-6-6-6-6-6-6--4/5-2/5---6-6-6-6-6-6-6-6-6--8/-9/-8/-9-|
     x x   x x   x x              x x   x x   x x
d|---------------------------------------------------------------|
A|---------------------------------------------------------------|
F|---------------------------------------------------------------|
C|---------------------------------------------------------12-10-|
G|-8-----8-----8------6/7-4/7---8-----8-----8-----10/11/13-10--8-|
D|-6-6-6-6-6-6-6-6-6--4/5-2/5---6-6-6-6-6-6-6-6-6--8/-9/11-------|
     x x   x x   x x              x x   x x   x x

repeat riff B 2x
repeat riff C 3x

Riff D
d|-----------------------------------------------------------|
A|-----------------------------------------------------------|
F|-----------------------------------------------------------|
C|-10-10--8/10---13-13---8-8/10------------------------------|
G|--8--8--6/-8---11-11---6-6/-8------------------------------|
D|-----------------------------------------------------------|

d|-----------------------------------------------------------|
A|-----------------------------------------------------------|
F|-----------------------------------------------------------|
C|-10-10--8/10--------7----6----8--11~-----------------------|
G|--8--8--6/-8---9-9--5-5--4-4--6----------------------------|
D|---------------7-7-----------------------------------------|

Repeat riff B 6x till end of song!

  Visit MetalTabs.com for more metal tablature

bottom separator

Contact Us | Privacy Policy | Disclaimer | Legal Notice
Copyright © 2001-2014 MetalTabs.com. All Rights Reserved.