#----------------------------------PLEASE NOTE---------------------------------#
#This file is the author's own work and represents their interpretation of the #
#song. You may only use this file for private study, scholarship, or research. #
#Unless specified otherwise, this is NOT an official tab from the band members.#
#------------------------------------------------------------------------------#

  Visit MetalTabs.com for more metal tablature
  
ARTIST: FREEDOM CALL
TITLE: PHARAO
ALBUM: CRYSTAL EMPIRE
TUNING: Eb,Ab,Db,Gb

INTRO (0:15)

|----------------|----------------|--------|
|----------------|----------------|--------|
|7~--------------|----------------|12/4p0--|
|----------------|----------------|--------| x1


CHORUS ("Ramses, Pharao...")

|----------------|----------------|----------------|----------------|
|----------------|----------------|----------------|----------------|
|----------------|3~--------------|----------------|5~--------------|
|0~--------------|----------------|3~--------------|----------------| x2

|----------------|----------------|----------------|----------------|
|----------------|----------------|----------------|----------------|
|----------------|----------------|----------------|----------------|
|0~--------------|----------------|----------------|----------------| x1


VERSE ("You`re the king...")

|----------------|----------------|----------------|----------------|
|----------------|----------------|----------------|----------------|
|----------------|----------------|3-3-3-3-3-3-3-3-|2-2-2-2-2-2-2-2-|
|0-0-0-0-0-0-0-0|0-0-0-0-0-0-0-0-|----------------|----------------| x2


INTERLUDE ("The god of deliverance...")
                                   ________________ ________________
                                  |1.              |2.              |
|----------------|----------------|----------------|----------------|
|----------------|----------------|----------------|----------------|
|----------------|3~--------------|2~--------------|2222R-----------|
|0~------0~------|----------------|----------------|----------------| x1


VERSE


PRE-CHORUS 1
                                   ________________ ________________
                                  |1.              |2.              |
|----------------|----------------|----------------|----------------|
|----------------|----------------|----------------|----------------|
|----------------|3---------------|2---------------|22222222R-------|
|0-------0-------|----------------|----------------|----------------|x1


CHORUS


VERSE


PRE-CHORUS 2
                                   ________________ ________________
                                  |1.              |2.              |
|----------------|----------------|----------------|----------------|
|----------------|----------------|----------------|----------------|
|----------------|3~--------------|2~--------------|2222222222222222|
|0~------0~------|----------------|----------------|----------------|x1


CHORUS


OUTRO ("I'm the river, the giver...")

|----------------|----------------|----------------|----------------|
|----------------|----------------|----------------|----------------|
|7-7-7-8-7-7-7-5-|7-7-7-8-7~------|----------------|----------------|
|----------------|----------------|7-7-7-8-7-7-7-5-|7-7-7-8-7~------|x2


|----------------|----------------|----------------|----------------|
|2-2-2-2-2-2-2-2-|----------------|----------------|----------------|
|----------------|2-2-2-2-2-2-2-2-|5-5-5-5-5-5-5-5-|----------------|
|----------------|----------------|----------------|5-5-5-5-5-5-5-5-|

Repeat the last riff throughout solos and fade out.


Questions, comments, requests?  Guardian83@web.de

  Visit MetalTabs.com for more metal tablature