top separator

Home

Forum

What's New

Submit a Tab

FAQ

Links

Contact Us

Link to Us

MuSpy.com

MetalTabs.com logo

Bands

0-9

A

B

C

D

E

F

G

H

I

J

K

L

M

N

O

P

Q

R

S

T

U

V

W

X

Y

Z

Search

What

Where
 

Finntroll - "VargTimmen" Guitar Tab

Plain Text Version
More Finntroll Tabs

Hits: 3971
Rated: 3.11 out of 5 (9 votes)
Updated: 2002-12-07 15:29:09

 

Important note
This tab is available online because we obtained explicit permission from Finntroll or their label.


#----------------------------------PLEASE NOTE---------------------------------#
#This file is the author's own work and represents their interpretation of the #
#song. You may only use this file for private study, scholarship, or research. #
#Unless specified otherwise, this is NOT an official tab from the band members.#
#------------------------------------------------------------------------------#

  Visit MetalTabs.com for more metal tablature
  
Finntroll - VargTimmen
Album: Jatkens Tid
Artist: Sander Noordijk
any questions , comments/suggestions: sander_noordijk@yahoo.com


Intro Riff (play it twice)
E-8-8-8-7-7h8-5-7-5-7-8-10 8/5-5-5-7-5-3-----|
B--------------------------------------------|
G--------------------------------------------|
D--------------------------------------------|
A--------------------------------------------|
E--------------------------------------------|



E-8-8-8-7-7h8-5-7-5-7-8-10 8/5---------------|
B--------------------------------------------|
G--------------------------------------------|
D--------------------------------------------|
A--------------------------------------------|
E--------------------------------------------|


Riff 1:

E-------------------------------------------------------------------|
B-------------------------------------------------------------------|
G--7-7-7-4-5-5---7-7-7-4-5-5---7-7-7-9-10-10-9/10/9-7---------------|
D--7-7-7-4-5-5---7-7-7-4-5-5---7-7-7-9-10-10-9/10/9-7---------------| 2x
A--5-5-5-2-3-3---5-5-5-2-3-3---5-5-5-7-8--8--7/8-/7-5---------------|
E-------------------------------------------------------------------|

Riff 2:

E----------------------------------------------|
B----------------------------------------------|
G--5---5---5---4---4---4----3---3-5-5-4---4-5--|
D--5---5---5---4---4---4----3---3-5-5-4---4-5--|
A--3-0-3-0-3-0-2-0-2-0-2----5-0-5-7-3-2-0-2-3--|
E----------------------------------------------|
                            . . . . . . . .


E-------------------------------------------------------------------|
B-------------------------------------------------------------------|
G--7-7-7-7--7-7--5-5-5-5--5-5---------------------------------------|
D--7-7-7-7--7-7--5-5-5-5--5-5------2-3-5-7-5-3-2h3------------------|
A--5-5-5-5--5-5--3-3-3-3--3-3----5-----------------5----------------|
E-------------------------------------------------------------------|

Riff 1

Riff 2

Riff 1

Riff 2

Riff 2

Bridge :


E-----------------------------|
B-----------------------------|
G--7-7-5-7--------------------|
D--7-7-5-7--3-5--2------------|
A--5-5-3-5--3-5--2--let-ring--|
E-----------1-3--0------------|


Riff 3:

E------------------------------------------|
B------------------------------------------|
G------------------------------------------|
D--8-8-8-7-7h8-5-7-5-7-8-10 8/5-5-5-7-5-3--|
A------------------------------------------|
E------------------------------------------|

E------------------------------------------|
B------------------------------------------|
G------------------------------------------|
D--8-8-8-7-7h8-5-7-5-7-8-10 8/5------------|
A------------------------------------------|
E------------------------------------------|

Riff 1

Riff 2

Riff 2

Riff 1

Riff 2

Riff 2

Riff 2

  Visit MetalTabs.com for more metal tablature

bottom separator

Contact Us | Privacy Policy | Disclaimer | Legal Notice
Copyright © 2001-2014 MetalTabs.com. All Rights Reserved.