top separator

Home

Forum

What's New

Submit a Tab

FAQ

Links

Contact Us

Link to Us

MuSpy.com

MetalTabs.com logo

Bands

0-9

A

B

C

D

E

F

G

H

I

J

K

L

M

N

O

P

Q

R

S

T

U

V

W

X

Y

Z

Search

What

Where
 

In Extremo - "Spielmannsfluch" Guitar Tab

Plain Text Version
More In Extremo Tabs

Hits: 17720
Rated: 3.77 out of 5 (13 votes)
Updated: 2002-10-06 07:00:52

 

By:

Darkenelf

sendpm.gif

email.gif

Important note
We did our best to reach In Extremo and ask for their permission to publish this tab. Unfortunately they did not respond to our requests or we could not find a way to contact them. This tab is available online until In Extremo tells us to take it down.


#----------------------------------PLEASE NOTE---------------------------------#
#This file is the author's own work and represents their interpretation of the #
#song. You may only use this file for private study, scholarship, or research. #
#Unless specified otherwise, this is NOT an official tab from the band members.#
#------------------------------------------------------------------------------#

  Visit MetalTabs.com for more metal tablature
  
Band: In Extremo
Album: Verehrt und Angespien
Song: Spielmannsfluch
Tabbed by: Martijn Wietsma
Email: dalvanian@yahoo.com
Date: 26-07-2002

In D tuned
h = hammer
p = pick
. = palm mute
/ = forward slide

Riff A
d|--------------------------------------------------------|
A|--------------------------------------------------------|
F|--------------------------------------------------------|
C|------7h8p7h--------------------------------------------|
G|-5-5---------8-------0-0--7h8p7h------------------------|
D|---------------------------------8----------------------|
   . .                 . .

d|--------------------------------------------------------|
A|--------------------------------------------------------|
F|--------------------------------------------------------|
C|------7h8p7h--------------------------------------------|
G|-5-5---------8-------0-0--7h8p7h------------------------|
D|---------------------------------8----------------------|
   . .                 . .

d|--------------------------------------------------------|
A|--------------------------------------------------------|
F|--------------------------------------------------------|
C|------7h8p7h--------------------------------------------|
G|-5-5---------8-------0-0--7h8p7h------------------------|
D|---------------------------------8----------------------|
   . .                 . .

d|--------------------------------------------------------|
A|--------------------------------------------------------|
F|--------------------------------------------------------|
C|------7h8p7h--------------------------------------------|
G|-5-5---------8-------0-0--7h8p7h------------------------|
D|---------------------------------8----------------------|
   . .                 . .

Riff B
d|--------------------------------------------------------|
A|--------------------------------------------------------|
F|--------------------------------------------------------|
C|--------------------------------------------------------|
G|-7-7---7-7---7-7------8-8---7/10------------------------|
D|-5-5---5-5---5-5------6-6---5/-8------------------------|
   . .   . .            . .

d|--------------------------------------------------------|
A|--------------------------------------------------------|
F|--------------------------------------------------------|
C|--------------------------------------------------------|
G|-7-7---7-7---7-7------8-8---7/10------------------------|
D|-5-5---5-5---5-5------6-6---5/-8------------------------|
   . .   . .            . .

d|--------------------------------------------------------|
A|--------------------------------------------------------|
F|--------------------------------------------------------|
C|--------------------------------------------------------|
G|-7-7---7-7---7-7------8-8---7/10------------------------|
D|-5-5---5-5---5-5------6-6---5/-8------------------------|
   . .   . .            . .

d|--------------------------------------------------------|
A|--------------------------------------------------------|
F|--------------------------------------------------------|
C|--------------------------------------------------------|
G|-7-7---7-7---7-7------8-8---7/10------------------------|
D|-5-5---5-5---5-5------6-6---5/-8------------------------|
   . .   . .            . .

Riff C
d|--------------------------------------------------------|
A|--------------------------------------------------------|
F|--------------------------------------------------------|
C|----------------------2h3p2-----------------------------|
G|-8-8---10-10-10---4-4--------8-8---10-10-10--7-7--------|
D|-6-6----8--8--8---2-2--------6-6----8--8--8--5-5-5-5-5-5|
                                                   . . . .

Riff B
d|--------------------------------------------------------|
A|--------------------------------------------------------|
F|--------------------------------------------------------|
C|--------------------------------------------------------|
G|-7-7---7-7---7-7------8-8---7/10------------------------|
D|-5-5---5-5---5-5------6-6---5/-8------------------------|
   . .   . .            . .

d|--------------------------------------------------------|
A|--------------------------------------------------------|
F|--------------------------------------------------------|
C|--------------------------------------------------------|
G|-7-7---7-7---7-7------8-8---7/10------------------------|
D|-5-5---5-5---5-5------6-6---5/-8------------------------|
   . .   . .            . .

d|--------------------------------------------------------|
A|--------------------------------------------------------|
F|--------------------------------------------------------|
C|--------------------------------------------------------|
G|-7-7---7-7---7-7------8-8---7/10------------------------|
D|-5-5---5-5---5-5------6-6---5/-8------------------------|
   . .   . .            . .

d|--------------------------------------------------------|
A|--------------------------------------------------------|
F|--------------------------------------------------------|
C|--------------------------------------------------------|
G|-7-7---7-7---7-7------8-8---7/10------------------------|
D|-5-5---5-5---5-5------6-6---5/-8------------------------|
   . .   . .            . .

Riff D
d|--------------------------------------------------------|
A|--------------------------------------------------------|
F|--------------------------------------------------------|
C|--------------------------------------------------------|
G|-7-7-7-7-7-7--9/10---7-7-7-7-7-7-10\9-------------------|
D|-5-5-5-5-5-5--7/-8---5-5-5-5-5-5--8\7-------------------|

Riff E (pipes under riff D)
d|----13-----13--11---------------------------------------|
A|-11-----11---------14-13-11---11h13--14-13h14-11--------|
F|--------------------------------------------------------|
C|--------------------------------------------------------|
G|--------------------------------------------------------|
D|--------------------------------------------------------|

d|--------------13-11-------------------------------------|
A|-14-13h14-11--------14-13-------------------------------|
F|--------------------------------------------------------|
C|--------------------------------------------------------|
G|--------------------------------------------------------|
D|--------------------------------------------------------|

d|----13-----13--11---------------------------------------|
A|-11-----11---------14-13-11---11h13--14-13h14-11--------|
F|--------------------------------------------------------|
C|--------------------------------------------------------|
G|--------------------------------------------------------|
D|--------------------------------------------------------|

d|--------------13-11-------------------------------------|
A|-14-13h14-11--------14-13-------------------------------|
F|--------------------------------------------------------|
C|--------------------------------------------------------|
G|--------------------------------------------------------|
D|--------------------------------------------------------|

Riff F under D
d|-11h13-13-13--14h16-18--13-13--11h13p11-----------------|
A|----------------------------------------14-13-----------|
F|--------------------------------------------------------|
C|--------------------------------------------------------|
G|--------------------------------------------------------|
D|--------------------------------------------------------|

d|-------(11h)13-13---------------------------------------|
A|-13h14------------11------------------------------------|
F|--------------------------------------------------------|
C|--------------------------------------------------------|
G|--------------------------------------------------------|
D|--------------------------------------------------------|

d|-11h13-13-13--14h16-18--13-13--11h13p11-----------------|
A|----------------------------------------14-13-----------|
F|--------------------------------------------------------|
C|--------------------------------------------------------|
G|--------------------------------------------------------|
D|--------------------------------------------------------|

d|-------(11h)13-13---------------------------------------|
A|-13h14------------11------------------------------------|
F|--------------------------------------------------------|
C|--------------------------------------------------------|
G|--------------------------------------------------------|
D|--------------------------------------------------------|

Riff A
d|--------------------------------------------------------|
A|--------------------------------------------------------|
F|--------------------------------------------------------|
C|------7h8p7h--------------------------------------------|
G|-5-5---------8-------0-0--7h8p7h------------------------|
D|---------------------------------8----------------------|
   . .                 . .

d|--------------------------------------------------------|
A|--------------------------------------------------------|
F|--------------------------------------------------------|
C|------7h8p7h--------------------------------------------|
G|-5-5---------8-------0-0--7h8p7h------------------------|
D|---------------------------------8----------------------|
   . .                 . .

Riff B
d|--------------------------------------------------------|
A|--------------------------------------------------------|
F|--------------------------------------------------------|
C|--------------------------------------------------------|
G|-7-7---7-7---7-7------8-8---7/10------------------------|
D|-5-5---5-5---5-5------6-6---5/-8------------------------|
   . .   . .            . .

d|--------------------------------------------------------|
A|--------------------------------------------------------|
F|--------------------------------------------------------|
C|--------------------------------------------------------|
G|-7-7---7-7---7-7------8-8---7/10------------------------|
D|-5-5---5-5---5-5------6-6---5/-8------------------------|
   . .   . .            . .

d|--------------------------------------------------------|
A|--------------------------------------------------------|
F|--------------------------------------------------------|
C|--------------------------------------------------------|
G|-7-7---7-7---7-7------8-8---7/10------------------------|
D|-5-5---5-5---5-5------6-6---5/-8------------------------|
   . .   . .            . .

d|--------------------------------------------------------|
A|--------------------------------------------------------|
F|--------------------------------------------------------|
C|--------------------------------------------------------|
G|-7-7---7-7---7-7------8-8---7/10------------------------|
D|-5-5---5-5---5-5------6-6---5/-8------------------------|
   . .   . .            . .

Riff C
d|--------------------------------------------------------|
A|--------------------------------------------------------|
F|--------------------------------------------------------|
C|----------------------2h3p2-----------------------------|
G|-8-8---10-10-10---4-4--------8-8---10-10-10--7-7--------|
D|-6-6----8--8--8---2-2--------6-6----8--8--8--5-5-5-5-5-5|
                                                   . . . .

Riff B
d|--------------------------------------------------------|
A|--------------------------------------------------------|
F|--------------------------------------------------------|
C|--------------------------------------------------------|
G|-7-7---7-7---7-7------8-8---7/10------------------------|
D|-5-5---5-5---5-5------6-6---5/-8------------------------|
   . .   . .            . .

d|--------------------------------------------------------|
A|--------------------------------------------------------|
F|--------------------------------------------------------|
C|--------------------------------------------------------|
G|-7-7---7-7---7-7------8-8---7/10------------------------|
D|-5-5---5-5---5-5------6-6---5/-8------------------------|
   . .   . .            . .

d|--------------------------------------------------------|
A|--------------------------------------------------------|
F|--------------------------------------------------------|
C|--------------------------------------------------------|
G|-7-7---7-7---7-7------8-8---7/10------------------------|
D|-5-5---5-5---5-5------6-6---5/-8------------------------|
   . .   . .            . .

d|--------------------------------------------------------|
A|--------------------------------------------------------|
F|--------------------------------------------------------|
C|--------------------------------------------------------|
G|-7-7---7-7---7-7------8-8---7/10------------------------|
D|-5-5---5-5---5-5------6-6---5/-8------------------------|
   . .   . .            . .

Riff D
d|--------------------------------------------------------|
A|--------------------------------------------------------|
F|--------------------------------------------------------|
C|--------------------------------------------------------|
G|-7-7-7-7-7-7--9/10---7-7-7-7-7-7-10\9-------------------|
D|-5-5-5-5-5-5--7/-8---5-5-5-5-5-5--8\7-------------------|

Riff E (pipes under riff D)
d|----13-----13--11---------------------------------------|
A|-11-----11---------14-13-11---11h13--14-13h14-11--------|
F|--------------------------------------------------------|
C|--------------------------------------------------------|
G|--------------------------------------------------------|
D|--------------------------------------------------------|

d|--------------13-11-------------------------------------|
A|-14-13h14-11--------14-13-------------------------------|
F|--------------------------------------------------------|
C|--------------------------------------------------------|
G|--------------------------------------------------------|
D|--------------------------------------------------------|

d|----13-----13--11---------------------------------------|
A|-11-----11---------14-13-11---11h13--14-13h14-11--------|
F|--------------------------------------------------------|
C|--------------------------------------------------------|
G|--------------------------------------------------------|
D|--------------------------------------------------------|

d|--------------13-11-------------------------------------|
A|-14-13h14-11--------14-13-------------------------------|
F|--------------------------------------------------------|
C|--------------------------------------------------------|
G|--------------------------------------------------------|
D|--------------------------------------------------------|

Riff F under D
d|-11h13-13-13--14h16-18--13-13--11h13p11-----------------|
A|----------------------------------------14-13-----------|
F|--------------------------------------------------------|
C|--------------------------------------------------------|
G|--------------------------------------------------------|
D|--------------------------------------------------------|

d|-------(11h)13-13---------------------------------------|
A|-13h14------------11------------------------------------|
F|--------------------------------------------------------|
C|--------------------------------------------------------|
G|--------------------------------------------------------|
D|--------------------------------------------------------|

d|-11h13-13-13--14h16-18--13-13--11h13p11-----------------|
A|----------------------------------------14-13-----------|
F|--------------------------------------------------------|
C|--------------------------------------------------------|
G|--------------------------------------------------------|
D|--------------------------------------------------------|

d|-------(11h)13-13---------------------------------------|
A|-13h14------------11------------------------------------|
F|--------------------------------------------------------|
C|--------------------------------------------------------|
G|--------------------------------------------------------|
D|--------------------------------------------------------|

Riff B
d|--------------------------------------------------------|
A|--------------------------------------------------------|
F|--------------------------------------------------------|
C|--------------------------------------------------------|
G|-7-7---7-7---7-7------8-8---7/10------------------------|
D|-5-5---5-5---5-5------6-6---5/-8------------------------|
   . .   . .            . .

d|--------------------------------------------------------|
A|--------------------------------------------------------|
F|--------------------------------------------------------|
C|--------------------------------------------------------|
G|-7-7---7-7---7-7------8-8---7/10------------------------|
D|-5-5---5-5---5-5------6-6---5/-8------------------------|
   . .   . .            . .

d|--------------------------------------------------------|
A|--------------------------------------------------------|
F|--------------------------------------------------------|
C|--------------------------------------------------------|
G|-7-7---7-7---7-7------8-8---7/10------------------------|
D|-5-5---5-5---5-5------6-6---5/-8------------------------|
   . .   . .            . .

d|--------------------------------------------------------|
A|--------------------------------------------------------|
F|--------------------------------------------------------|
C|--------------------------------------------------------|
G|-7-7---7-7---7-7------8-8---7/10------------------------|
D|-5-5---5-5---5-5------6-6---5/-8------------------------|
   . .   . .            . .

Riff C
d|--------------------------------------------------------|
A|--------------------------------------------------------|
F|--------------------------------------------------------|
C|----------------------2h3p2-----------------------------|
G|-8-8---10-10-10---4-4--------8-8---10-10-10--7-7--------|
D|-6-6----8--8--8---2-2--------6-6----8--8--8--5-5-5-5-5-5|
                                                   . . . .

Riff B
d|--------------------------------------------------------|
A|--------------------------------------------------------|
F|--------------------------------------------------------|
C|--------------------------------------------------------|
G|-7-7---7-7---7-7------8-8---7/10------------------------|
D|-5-5---5-5---5-5------6-6---5/-8------------------------|
   . .   . .            . .

d|--------------------------------------------------------|
A|--------------------------------------------------------|
F|--------------------------------------------------------|
C|--------------------------------------------------------|
G|-7-7---7-7---7-7------8-8---7/10------------------------|
D|-5-5---5-5---5-5------6-6---5/-8------------------------|
   . .   . .            . .

d|--------------------------------------------------------|
A|--------------------------------------------------------|
F|--------------------------------------------------------|
C|--------------------------------------------------------|
G|-7-7---7-7---7-7------8-8---7/10------------------------|
D|-5-5---5-5---5-5------6-6---5/-8------------------------|
   . .   . .            . .

d|--------------------------------------------------------|
A|--------------------------------------------------------|
F|--------------------------------------------------------|
C|--------------------------------------------------------|
G|-7-7---7-7---7-7------8-8---7/10------------------------|
D|-5-5---5-5---5-5------6-6---5/-8------------------------|
   . .   . .            . .

Riff D
d|--------------------------------------------------------|
A|--------------------------------------------------------|
F|--------------------------------------------------------|
C|--------------------------------------------------------|
G|-7-7-7-7-7-7--9/10---7-7-7-7-7-7-10\9-------------------|
D|-5-5-5-5-5-5--7/-8---5-5-5-5-5-5--8\7-------------------|

Riff E (pipes under riff D)
d|----13-----13--11---------------------------------------|
A|-11-----11---------14-13-11---11h13--14-13h14-11--------|
F|--------------------------------------------------------|
C|--------------------------------------------------------|
G|--------------------------------------------------------|
D|--------------------------------------------------------|

d|--------------13-11-------------------------------------|
A|-14-13h14-11--------14-13-------------------------------|
F|--------------------------------------------------------|
C|--------------------------------------------------------|
G|--------------------------------------------------------|
D|--------------------------------------------------------|

d|----13-----13--11---------------------------------------|
A|-11-----11---------14-13-11---11h13--14-13h14-11--------|
F|--------------------------------------------------------|
C|--------------------------------------------------------|
G|--------------------------------------------------------|
D|--------------------------------------------------------|

d|--------------13-11-------------------------------------|
A|-14-13h14-11--------14-13-------------------------------|
F|--------------------------------------------------------|
C|--------------------------------------------------------|
G|--------------------------------------------------------|
D|--------------------------------------------------------|

Riff F under D
d|-11h13-13-13--14h16-18--13-13--11h13p11-----------------|
A|----------------------------------------14-13-----------|
F|--------------------------------------------------------|
C|--------------------------------------------------------|
G|--------------------------------------------------------|
D|--------------------------------------------------------|

d|-------(11h)13-13---------------------------------------|
A|-13h14------------11------------------------------------|
F|--------------------------------------------------------|
C|--------------------------------------------------------|
G|--------------------------------------------------------|
D|--------------------------------------------------------|

d|-11h13-13-13--14h16-18--13-13--11h13p11-----------------|
A|----------------------------------------14-13-----------|
F|--------------------------------------------------------|
C|--------------------------------------------------------|
G|--------------------------------------------------------|
D|--------------------------------------------------------|

d|-------(11h)13-13---------------------------------------|
A|-13h14------------11------------------------------------|
F|--------------------------------------------------------|
C|--------------------------------------------------------|
G|--------------------------------------------------------|
D|--------------------------------------------------------|

  Visit MetalTabs.com for more metal tablature

bottom separator

Contact Us | Privacy Policy | Disclaimer | Legal Notice
Copyright © 2001-2014 MetalTabs.com. All Rights Reserved.