top separator

Home

Forum

What's New

Submit a Tab

FAQ

Links

Contact Us

Link to Us

MuSpy.com

MetalTabs.com logo

Bands

0-9

A

B

C

D

E

F

G

H

I

J

K

L

M

N

O

P

Q

R

S

T

U

V

W

X

Y

Z

Search

What

Where
 

Catamenia - "Land of the AutumnWinds" Guitar Tab

Plain Text Version
More Catamenia Tabs

Hits: 7027
Rated: 4.50 out of 5 (6 votes)
Updated: 2002-10-06 06:52:17

 

By:

Darkenelf

sendpm.gif

email.gif

Important note
This tab is available online because we obtained explicit permission from Catamenia or their label.


#----------------------------------PLEASE NOTE---------------------------------#
#This file is the author's own work and represents their interpretation of the #
#song. You may only use this file for private study, scholarship, or research. #
#Unless specified otherwise, this is NOT an official tab from the band members.#
#------------------------------------------------------------------------------#

  Visit MetalTabs.com for more metal tablature
  
Band: Catamenia
Album: Halls of Frozen North
Song: Land of Autumn Winds
Tabbed by: Martijn Wietsma
Email: dalvanian@yahoo.com
Date: 24-07-2002

Tune down to D
. = palm mute
h = hammer
p = pick
~ = pull string up
/ = forward slide
\ = backward slide


Riff A (keyboard intro)
e|-5-6-5--3-5---5-6-5--3-6-8-6-3---5-6-5--3-5-------------|
B|--------------------------------------------------------|
G|--------------------------------------------------------|
D|--------------------------------------------------------|
A|--------------------------------------------------------|
E|--------------------------------------------------------|

e|-5-6-5--3-5---5-6-5--3-6-8-6-3---5-6-5--3-5-------------|
B|--------------------------------------------------------|
G|--------------------------------------------------------|
D|--------------------------------------------------------|
A|--------------------------------------------------------|
E|--------------------------------------------------------|

Riff B (chords)
e|--------------------------------------------------------|
B|--------------------------------------------------------|
G|--------------------------------------------------------|
D|--------------------------------------------------------|
A|-8---8---8---8---8---8---8---8---10---------------------|
E|-6---6---6---6---6---6---6---6----8---6-6-6-6-----------|
                                        . . . .
e|--------------------------------------------------------|
B|--------------------------------------------------------|
G|--------------------------------------------------------|
D|--------------------------------------------------------|
A|-8---8---8---8---8---8---8---8---10---------------------|
E|-6---6---6---6---6---6---6---6----8---6-6-6-6-----------|
                                        . . . .
Riff C (lead) play under riff B
e|--------------------------------------------------------|
B|--------------------------------------------------------|
G|--------------------------------------------------------|
D|--------------------------------------------------------|
A|--------------------------------------------------------|
E|-6h7p6-4h6---6h7p6-4--7h9p7-4---6h7p6-4h6---------------|

e|--------------------------------------------------------|
B|--------------------------------------------------------|
G|--------------------------------------------------------|
D|--------------------------------------------------------|
A|--------------------------------------------------------|
E|-6h7p6-4h6---6h7p6-4--7h9p7-4---6h7p6-4h6---------------|

Riff D
e|--------------------------------------------------------|
B|--------------------------------------------------------|
G|--------------------------------------------------------|
D|--------------------------------------------------------|
A|-6h7p6-4h6---6h7p6-4--7h9p7-4---6h7p6-4h6---------------|
E|--------------------------------------------------------|

e|--------------------------------------------------------|
B|--------------------------------------------------------|
G|--------------------------------------------------------|
D|--------------------------------------------------------|
A|-6h7p6-4h6---6h7p6-4--7h9p7-4---6h7p6-4h6---------------|
E|--------------------------------------------------------|

Riff E
e|--------------------------------------------------------|
B|--------------------------------------------------------|
G|--------------------------------------------------------|
D|--------------------------------------------------------|
A|-8h9p8-6h8---8h9p8-6--9h11p9-6---8h9p8-6h8--------------|
E|--------------------------------------------------------|

e|--------------------------------------------------------|
B|--------------------------------------------------------|
G|--------------------------------------------------------|
D|--------------------------------------------------------|
A|-8h9p8-6h8---8h9p8-6--9h11p9-6---8h9p8-6h8--------------|
E|--------------------------------------------------------|

Riff B (chords)
e|--------------------------------------------------------|
B|--------------------------------------------------------|
G|--------------------------------------------------------|
D|--------------------------------------------------------|
A|-8---8---8---8---8---8---8---8---10---------------------|
E|-6---6---6---6---6---6---6---6----8---6-6-6-6-----------|
                                        . . . .
e|--------------------------------------------------------|
B|--------------------------------------------------------|
G|--------------------------------------------------------|
D|--------------------------------------------------------|
A|-8---8---8---8---8---8---8---8---10---------------------|
E|-6---6---6---6---6---6---6---6----8---6-6-6-6-----------|
                                        . . . .
Riff C (lead) play under riff B
e|--------------------------------------------------------|
B|--------------------------------------------------------|
G|--------------------------------------------------------|
D|--------------------------------------------------------|
A|--------------------------------------------------------|
E|-6h7p6-4h6---6h7p6-4--7h9p7-4---6h7p6-4h6---------------|

e|--------------------------------------------------------|
B|--------------------------------------------------------|
G|--------------------------------------------------------|
D|--------------------------------------------------------|
A|--------------------------------------------------------|
E|-6h7p6-4h6---6h7p6-4--7h9p7-4---6h7p6-4h6---------------|

Riff F
e|--------------------------------------------------------|
B|--------------------------------------------------------|
G|--------------------------------------------------------|
D|--------------------------------------------------------|
A|---------8~---------6~----------7~-------9------7-------|
E|-6-6-6-6----4-4-4-4-----5-5-5-5------7-7-7--5-5-5-------|
   . . . .    . . . .     . . . .      . .    . .

e|--------------------------------------------------------|
B|--------------------------------------------------------|
G|--------------------------------------------------------|
D|--------------------------------------------------------|
A|---------8~---------6~----------7~-------9------7-------|
E|-6-6-6-6----4-4-4-4-----5-5-5-5------7-7-7--5-5-5-------|
   . . . .    . . . .     . . . .      . .    . .

e|--------------------------------------------------------|
B|--------------------------------------------------------|
G|--------------------------------------------------------|
D|--------------------------------------------------------|
A|---------8~---------6~----------7~-------9------7-------|
E|-6-6-6-6----4-4-4-4-----5-5-5-5------7-7-7--5-5-5-------|
   . . . .    . . . .     . . . .      . .    . .

e|--------------------------------------------------------|
B|--------------------------------------------------------|
G|--------------------------------------------------------|
D|--------------------------------------------------------|
A|---------8~---------6~----------7~-------9------7-------|
E|-6-6-6-6----4-4-4-4-----5-5-5-5------7-7-7--5-5-5-------|
   . . . .    . . . .     . . . .      . .    . .

Riff G
e|--------------------------------------------------------|
B|--------------------------------------------------------|
G|--------------------------------------------------------|
D|--------------------------------------------------------|
A|----9-8--------9----8---------9-8----------9----8-------|
E|-6------9---7----6---------6------9-----7----6----------|

e|--------------------------------------------------------|
B|--------------------------------------------------------|
G|--------------------------------------------------------|
D|--------------------------------------------------------|
A|----9-8--------9----8---------9-8----------9----8-------|
E|-6------9---7----6---------6------9-----7----6----------|

Riff H
e|--------------------------------------------------------|
B|--------------------------------------------------------|
G|--------------------------------------------------------|
D|--------------------------------------------------------|
A|-9-9--8h9p8-8----8h9----8--8h9p8--10--------------------|
E|--------------------------------------------------------|

e|--------------------------------------------------------|
B|--------------------------------------------------------|
G|--------------------------------------------------------|
D|--------------------------------------------------------|
A|-9-9--8h9p8-8----8h9----8--8h9p8--10--------------------|
E|--------------------------------------------------------|

Riff I (dunno this acoustic part)
e|--------------------------------------------------------|
B|--------------------------------------------------------|
G|--------------------------------------------------------|
D|-------11-----------------------------------------------|
A|----10----10-----11-10---8-10--11-----------------------|
E|-8------------------------------------------------------|
                                                   (2x)

Riff J
e|--------------------------------------------------------|
B|--------------------------------------------------------|
G|--------------------------------------------------------|
D|--------------------------------------------------------|
A|-8-8--8-8---8-8--8-8---8-8--9-9--9-9--6--4--4---/-------|
E|-6-6--6-6---6-6--6-6---6-6--7-7--7-7--4--2--2---/-------|
        . .        . .

e|--------------------------------------------------------|
B|--------------------------------------------------------|
G|--------------------------------------------------------|
D|--------------------------------------------------------|
A|-8-8--8-8---8-8--8-8---8-8--9-9--9-9--6--4--4---/-------|
E|-6-6--6-6---6-6--6-6---6-6--7-7--7-7--4--2--2---/-------|
        . .        . .

Riff K
e|--------------------------------------------------------|
B|--------------------------------------------------------|
G|--------------------------------------------------------|
D|--------------------------------------------------------|
A|-8-8--8-8---8-8--8-8---6-6-6-6--4-4---------------------|
E|-6-6--6-6---6-6--6-6---4-4-4-4--2-2---------------------|

e|--------------------------------------------------------|
B|--------------------------------------------------------|
G|--------------------------------------------------------|
D|--------------------------------------------------------|
A|-8-8--8-8---8-8--8-8---6-6-6-6--4-4---------------------|
E|-6-6--6-6---6-6--6-6---4-4-4-4--2-2---------------------|

Riff J
e|--------------------------------------------------------|
B|--------------------------------------------------------|
G|--------------------------------------------------------|
D|--------------------------------------------------------|
A|-8-8--8-8---8-8--8-8---8-8--9-9--9-9--6--4--4---/-------|
E|-6-6--6-6---6-6--6-6---6-6--7-7--7-7--4--2--2---/-------|
        . .        . .

e|--------------------------------------------------------|
B|--------------------------------------------------------|
G|--------------------------------------------------------|
D|--------------------------------------------------------|
A|-8-8--8-8---8-8--8-8---8-8--9-9--9-9--6--4--4---/-------|
E|-6-6--6-6---6-6--6-6---6-6--7-7--7-7--4--2--2---/-------|
        . .        . .

Riff L (solo, very very fast, sorry I did only the first
few notes)
e|--------------------------------3--5h6h8p6-5--6h8p6-5---|
B|----5h6p5-----5h6p5--2---5h6p5--------------------------|
G|-7---------7--------------------------------------------|
D|--------------------------------------------------------|
A|--------------------------------------------------------|
E|--------------------------------------------------------|

e|--------------------------------------------------------|
B|-8-7--6p5-5h6---then it's get's starting fast!!---------|
G|--------------------------------------------------------|
D|--------------------------------------------------------|
A|--------------------------------------------------------|
E|--------------------------------------------------------|

Riff F
e|--------------------------------------------------------|
B|--------------------------------------------------------|
G|--------------------------------------------------------|
D|--------------------------------------------------------|
A|---------8~---------6~----------7~-------9------7-------|
E|-6-6-6-6----4-4-4-4-----5-5-5-5------7-7-7--5-5-5-------|
   . . . .    . . . .     . . . .      . .    . .

e|--------------------------------------------------------|
B|--------------------------------------------------------|
G|--------------------------------------------------------|
D|--------------------------------------------------------|
A|---------8~---------6~----------7~-------9------7-------|
E|-6-6-6-6----4-4-4-4-----5-5-5-5------7-7-7--5-5-5-------|
   . . . .    . . . .     . . . .      . .    . .

Riff M (end part)
e|--------------------------------------------------------|
B|--------------------------------------------------------|
G|------8---------9----------6----------4-----------------|
D|----8---8-----9---9------6---6------4---4---------------|
A|-6----------7---------4-----------2---------------------|
E|--------------------------------------------------------|

e|--------------------------------------------------------|
B|--------------------------------------------------------|
G|------8---------9----------6----------4-----------------|
D|----8---8-----9---9------6---6------4---4---------------|
A|-6----------7---------4-----------2---------------------|
E|--------------------------------------------------------|

e|--------------------------------------------------------|
B|--------------------------------------------------------|
G|------8---------9----------6----------4-----------------|
D|----8---8-----9---9------6---6------4---4---------------|
A|-6----------7---------4-----------2---------------------|
E|--------------------------------------------------------|

e|--------------------------------------------------------|
B|--------------------------------------------------------|
G|------8---------9----------6----------4-----------------|
D|----8---8-----9---9------6---6------4---4---------------|
A|-6----------7---------4-----------2---------------------|
E|--------------------------------------------------------|

  Visit MetalTabs.com for more metal tablature

bottom separator

Contact Us | Privacy Policy | Disclaimer | Legal Notice
Copyright © 2001-2014 MetalTabs.com. All Rights Reserved.