top separator

Home

Forum

What's New

Submit a Tab

FAQ

Links

Contact Us

Link to Us

MuSpy.com

MetalTabs.com logo

Bands

0-9

A

B

C

D

E

F

G

H

I

J

K

L

M

N

O

P

Q

R

S

T

U

V

W

X

Y

Z

Search

What

Where
 

Nargaroth - "Seven Tears are Flowing to the River" Guitar Tab

Plain Text Version
More Nargaroth Tabs

Hits: 7536
Rated: 2.18 out of 5 (22 votes)
Updated: 2002-10-06 06:38:23

 

Important note
We did our best to reach Nargaroth and ask for their permission to publish this tab. Unfortunately they did not respond to our requests or we could not find a way to contact them. This tab is available online until Nargaroth tells us to take it down.


#----------------------------------PLEASE NOTE---------------------------------#
#This file is the author's own work and represents their interpretation of the #
#song. You may only use this file for private study, scholarship, or research. #
#Unless specified otherwise, this is NOT an official tab from the band members.#
#------------------------------------------------------------------------------#

  Visit MetalTabs.com for more metal tablature
  
Band:  NARGAROTH
Album: BLACK METAL IST KRIEG
Song:  SEVEN TEARS ARE FLOWING TO THE RIVER

Copyright (c)  NO COLOURS RECORDS 2000
Version 1.0 - 7/23/02

Transcribed By: MARIO MARTINEZ
Email:          mariobros28@hotmail.com


.  - palm mute           /  - slide up to
\  - slide down to       ~  - vibrato
h  - hammer on           b  - Bend
p  - pull off            Suffixes for bend
t  - tap                 f  - full bend    h - half bend
ph - pinched harmonic    q  - quarter bend t - tap bend
*  - see comment         ^  - Hold bend    r release bend
x  - Stuccatto           ~  - vibrato bend
,  - slight palm mute    () - ghost note, sustained note
"  - tremolo note        <> - Trill

Tunning E B G D A E


E|------------|-------------|------------|------|
B|------------|-------------|------------|------|
G|------------|-------------|------------|------|
D|-2--4--2--4-|-2--4--2--5--|-2--5--2--5-|-2--6-|
A|------------|-------------|------------|------|
E|------------|-------------|------------|------|

E|------------|---------------------|
B|------------|---------------------|
G|------------|---------------------|
D|-2--6--2--6-|-2--6--2--5--2--4--2-|
A|------------|---------------------|
E|------------|---------------------|

0:08
E|------------|-------------|------------|--------|
B|------------|-------------|------------|--------|
G|------------|-------------|------------|--------|
D|-2--4--2--4-|-2--4--2--5--|-2--5--2--5-|-2----6-|
A|------------|-------------|------------|--------|
E|------------|-------------|------------|--------|

E|------------|-------------|
B|------------|-------------|
G|------------|-------------|
D|-2--6--2--6-|-2-6-2-5-2-5-|
A|------------|-------------|
E|------------|-------------|

0:17
E|------------|-------------|------------|------|
B|------------|-------------|------------|------|
G|------------|-------------|------------|------|
D|-2--4--2--4-|-2--4--2--5--|-2--5--2--5-|-2--6-|
A|------------|-------------|------------|------|
E|------------|-------------|------------|------|

E|------------|---------------------|
B|------------|---------------------|
G|------------|---------------------|
D|-2--6--2--6-|-2--6--2--5--2--4--2-|
A|------------|---------------------|
E|------------|---------------------|

0:25
E|-----------------|---------------------|-----------|---------------------------|
B|-----------------|---------------------|-----------|---------------------------|
G|-----------------|---------------------|-----------|---------------------------|
D|-2--4--2--4--5-4-|-2--4--2--4--2--5--4-|-6-6--2--6-|-2--6--2--6--2--5--2--4--2-|
A|-----------------|---------------------|-----------|---------------------------|
E|-----------------|---------------------|-----------|---------------------------|

0:34
E|------------|-------------|------------|------|
B|------------|-------------|------------|------|
G|------------|-------------|------------|------|
D|-2--4--2--4-|-2--4--2--5--|-2--5--2--5-|-2--6-|
A|------------|-------------|------------|------|
E|------------|-------------|------------|------|

E|------------------------------|
B|------------------------------|
G|------------------------------|
D|-2--6--6--5--6--6--2--4--5--4-|
A|------------------------------|
E|------------------------------|

0:42
E|------------|-------------|------------|------|
B|------------|-------------|------------|------|
G|------------|-------------|------------|------|
D|-2--4--2--4-|-2--4--2--5--|-2--5--2--5-|-2--6-|
A|------------|-------------|------------|------|
E|------------|-------------|------------|------|

E|------------------------------|
B|------------------------------|
G|------------------------------|
D|-2--6--6--5--6--6--2--4--5--4-|
A|------------------------------|
E|------------------------------|

0:50
E|------------------------|------------|
B|------------------------|------------|
G|------------------------|------------|
D|-2--4--2--4--2--5--2--5-|-2--5--2--6-|
A|------------------------|------------|
E|------------------------|------------|

E|------------|---------------------|
B|------------|---------------------|
G|------------|---------------------|
D|-2--6--2--6-|-2--6--2--5--2--4--2-|
A|------------|---------------------|
E|------------|---------------------|

0:59
E|-------------------|-----------------------|
B|-------------------|-----------------------|
G|-------------------|-----------------------|
D|-2--4--2--4--2--4--|-2--5--2--5--2--5--2--6|
A|-------------------|-----------------------|
E|-------------------|-----------------------|

  Visit MetalTabs.com for more metal tablature

bottom separator

Contact Us | Privacy Policy | Disclaimer | Legal Notice
Copyright © 2001-2014 MetalTabs.com. All Rights Reserved.