top separator

Home

Forum

What's New

Submit a Tab

FAQ

Links

Contact Us

Link to Us

MuSpy.com

MetalTabs.com logo

Bands

0-9

A

B

C

D

E

F

G

H

I

J

K

L

M

N

O

P

Q

R

S

T

U

V

W

X

Y

Z

Search

What

Where
 

Finntroll - "Skogens Hämnd" Guitar Tab

Plain Text Version
More Finntroll Tabs

Hits: 8769
Rated: 3.89 out of 5 (9 votes)
Updated: 2002-08-12 14:46:56

 

By:

Darkenelf

sendpm.gif

email.gif

Important note
This tab is available online because we obtained explicit permission from Finntroll or their label.


#----------------------------------PLEASE NOTE---------------------------------#
#This file is the author's own work and represents their interpretation of the #
#song. You may only use this file for private study, scholarship, or research. #
#Unless specified otherwise, this is NOT an official tab from the band members.#
#------------------------------------------------------------------------------#

  Visit MetalTabs.com for more metal tablature
  
Band: Finntroll
Album: Jaktens Tid
Song: Skogens Hamned
Tabbed by: Martijn Wietsma
Email: dalvanian@yahoo.com
Date: 23-07-2002

Tune down to D

Riff A
e|------------------------------------------------------------|
B|------------------------------------------------------------|
G|------------------------------------------------------------|
D|------------------------------------------------------------|
A|-8/10---10-10--10--10-10-10---8/10---10-10--10--10-10-10----|
E|-6/-8----8--8---8---8--8--8---6/-8----8--8---8---8--8--8----|

e|------------------------------------------------------------|
B|------------------------------------------------------------|
G|------------------------------------------------------------|
D|------------------------------------------------------------|
A|-8/10---10-10--10--10-10-10---8/10---10-10--10--10-10-10----|
E|-6/-8----8--8---8---8--8--8---6/-8----8--8---8---8--8--8----|

Riff B (keyboard part)
e|------------------------------------------------------------|
B|-15--12-14--------------------------------------------------|
G|-----------14---15-17-15-14------15-17-15-14----------------|
D|----------------------------15---------------15-14-15h17-15-|
A|------------------------------------------------------------|
E|------------------------------------------------------------|

e|------------------------------------------------------------|
B|-15--12-14--------------------------------------------------|
G|-----------14---15-17-15-14------15-17-15-14----------------|
D|----------------------------15---------------15-14-15h17-15-|
A|------------------------------------------------------------|
E|------------------------------------------------------------|


Riff C
e|------------------------------------------------------------|
B|---8---------------------8-5-7------8-----------------------|
G|-7---7h8p7p5h7-----7--7----------7-----7hh8p7p5h7--7-8-8-5h7|
D|------------------------------------------------------------|
A|------------------------------------------------------------|
E|------------------------------------------------------------|

e|------------------------------------------------------------|
B|---8---------------------8-5-7------8-----------------------|
G|-7---7h8p7p5h7-----7--7----------7-----7hh8p7p5h7--7-8-8-5h7|
D|------------------------------------------------------------|
A|------------------------------------------------------------|
E|------------------------------------------------------------|

Riff D
e|--------------------------------------------------------|
B|--------------------------------------------------------|
G|--------------------------------------------------------|
D|--------------------------8-----------------------------|
A|-------8-------8-------8--8-----------------------------|
E|-6-6-6-6-6-6-6-6-6-6-6-6--------------------------------|
   . . .   . . .   . . .

e|--------------------------------------------------------|
B|--------------------------------------------------------|
G|--------------------------------------------------------|
D|--------------------------------------------------------|
A|-------9-------9-------9--------------------------------|
E|-7-7-7-7-7-7-7-7-7-7-7-7---7-8-7-5-7-8--7h8-------------|
   . . .   . . .   . . .     . . . . . .  . .

e|--------------------------------------------------------|
B|--------------------------------------------------------|
G|--------------------------------------------------------|
D|--------------------------8-----------------------------|
A|-------8-------8-------8--8-----------------------------|
E|-6-6-6-6-6-6-6-6-6-6-6-6--------------------------------|
   . . .   . . .   . . .

e|--------------------------------------------------------|
B|--------------------------------------------------------|
G|--------------------------------------------------------|
D|--------------------------------------------------------|
A|-------9-------9-------9--------------------------------|
E|-7-7-7-7-7-7-7-7-7-7-7-7---7-8-7-5-7-8--7h8-------------|
   . . .   . . .   . . .     . . . . . .  . .

Riff E
e|--------------------------------------------------------|
B|--------------------------------------------------------|
G|--------------------------------------------------------|
D|-8-------8-------8-------8------------------------------|
A|-6-6-6-6-6-6-6-6-6-6-6-6-6-6-6-6------------------------|
E|--------------------------------------------------------|
     . . .   . . .   . . .   . . .

e|--------------------------------------------------------|
B|--------------------------------------------------------|
G|----------------------------------9~-9~-----------------|
D|-9-------9-------9-------9------------------------------|
A|-7-7-7-7-7-7-7-7-7-7-7-7-7-7-7-7------------------------|
E|--------------------------------------------------------|
     . . .   . . .   . . .   . . .

e|--------------------------------------------------------|
B|--------------------------------------------------------|
G|--------------------------------------------------------|
D|-8-------8-------8-------8------------------------------|
A|-6-6-6-6-6-6-6-6-6-6-6-6-6-6-6-6------------------------|
E|--------------------------------------------------------|
     . . .   . . .   . . .   . . .

e|--------------------------------------------------------|
B|--------------------------------------------------------|
G|----------------------------------9~-9~-----------------|
D|-9-------9-------9-------9------------------------------|
A|-7-7-7-7-7-7-7-7-7-7-7-7-7-7-7-7------------------------|
E|--------------------------------------------------------|
     . . .   . . .   . . .   . . .

Riff D
e|--------------------------------------------------------|
B|--------------------------------------------------------|
G|--------------------------------------------------------|
D|--------------------------8-----------------------------|
A|-------8-------8-------8--8-----------------------------|
E|-6-6-6-6-6-6-6-6-6-6-6-6--------------------------------|
   . . .   . . .   . . .

e|--------------------------------------------------------|
B|--------------------------------------------------------|
G|--------------------------------------------------------|
D|--------------------------------------------------------|
A|-------9-------9-------9--------------------------------|
E|-7-7-7-7-7-7-7-7-7-7-7-7---7-8-7-5-7-8--7h8-------------|
   . . .   . . .   . . .     . . . . . .  . .

e|--------------------------------------------------------|
B|--------------------------------------------------------|
G|--------------------------------------------------------|
D|--------------------------8-----------------------------|
A|-------8-------8-------8--8-----------------------------|
E|-6-6-6-6-6-6-6-6-6-6-6-6--------------------------------|
   . . .   . . .   . . .

e|--------------------------------------------------------|
B|--------------------------------------------------------|
G|--------------------------------------------------------|
D|--------------------------------------------------------|
A|-------9-------9-------9--------------------------------|
E|-7-7-7-7-7-7-7-7-7-7-7-7---7-8-7-5-7-8--7h8-------------|
   . . .   . . .   . . .     . . . . . .  . .

Riff E
e|--------------------------------------------------------|
B|--------------------------------------------------------|
G|--------------------------------------------------------|
D|-8-------8-------8-------8------------------------------|
A|-6-6-6-6-6-6-6-6-6-6-6-6-6-6-6-6------------------------|
E|--------------------------------------------------------|
     . . .   . . .   . . .   . . .

e|--------------------------------------------------------|
B|--------------------------------------------------------|
G|----------------------------------9~-9~-----------------|
D|-9-------9-------9-------9------------------------------|
A|-7-7-7-7-7-7-7-7-7-7-7-7-7-7-7-7------------------------|
E|--------------------------------------------------------|
     . . .   . . .   . . .   . . .

e|--------------------------------------------------------|
B|--------------------------------------------------------|
G|--------------------------------------------------------|
D|-8-------8-------8-------8------------------------------|
A|-6-6-6-6-6-6-6-6-6-6-6-6-6-6-6-6------------------------|
E|--------------------------------------------------------|
     . . .   . . .   . . .   . . .

e|--------------------------------------------------------|
B|--------------------------------------------------------|
G|----------------------------------9~-9~-----------------|
D|-9-------9-------9-------9------------------------------|
A|-7-7-7-7-7-7-7-7-7-7-7-7-7-7-7-7------------------------|
E|--------------------------------------------------------|
     . . .   . . .   . . .   . . .

Riff F
e|--------------------------------------------------------|
B|--------------------------------------------------------|
G|--------------------------------------------------------|
D|-9--10--9--8---------9--10--9--8------------------------|
A|-7---8--7--6---------7---8--7--6------------------------|
E|--------------------------------------------------------|

e|--------------------------------------------------------|
B|--------------------------------------------------------|
G|--------------------------------------------------------|
D|-9--10--9--8---------9--10--9--8------------------------|
A|-7---8--7--6---------7---8--7--6------------------------|
E|--------------------------------------------------------|

Riff G (keyboard part)
e|--------------------------------------------------------|
B|--------------------------------------------------------|
G|-12h12p12--10-12-13--12-13--15h16p15--13-15-16--15-13---|
D|--------------------------------------------------------|
A|--------------------------------------------------------|
E|--------------------------------------------------------|

e|--------------------------------------------------------|
B|--------------------------------------------------------|
G|-12h12p12--10-12-13--12-13--15h16p15--13-15-16--15-13---|
D|--------------------------------------------------------|
A|--------------------------------------------------------|
E|--------------------------------------------------------|


Riff H
e|--------------------------------------------------------|
B|--------------------------------------------------------|
G|--------------------------------------------------------|
D|--------------------------------------------------------|
A|-7-7--7-7--7-7--7-7---7-7---8/10------------------------|
E|-5-5--5-5--5-5--5-5---5-5---6--8------------------------|
   . .  . .  . .  . .   . .

e|--------------------------------------------------------|
B|--------------------------------------------------------|
G|--------------------------------------------------------|
D|--------------------------------------------------------|
A|-7-7--7-7--7-7--7-7---7-7-------------------------------|
E|-5-5--5-5--5-5--5-5---5-5---5---8-7-5-3-5-5-------------|
   . .  . .  . .  . .   . .   .   . . . . . .

Riff I
e|--------------------------------------------------------|
B|--------------------------------------------------------|
G|--------------------------------------------------------|
D|--------------------------------------------------------|
A|-6-6--6-6--6-6--6-6---7/9-------------------------------|
E|-4-4--4-4--4-4--4-4---5/7-------------------------------|
   . .  . .  . .  . .

e|--------------------------------------------------------|
B|--------------------------------------------------------|
G|--------------------------------------------------------|
D|--------------------------------------------------------|
A|-6-6--6-6--6-6--6-6-------------------------------------|
E|-4-4--4-4--4-4--4-4---4-6-7-6-4-2-4-4-------------------|
   . .  . .  . .  . .   . . . . . . . .

Riff J, under H & I
e|--------------------------------------------------------|
B|--------------------------------------------------------|
G|--------------------------------------------------------|
D|----5-7------8/10------5-7------------------------------|
A|-5--------5---------5-------5---8-7-5-3-5-5-------------|
E|--------------------------------------------------------|
                                  . . . . . .

e|--------------------------------------------------------|
B|--------------------------------------------------------|
G|--------------------------------------------------------|
D|----4-6-----6/7----4-6----------------------------------|
A|-4-------4-------4------4---7-6-4-2-4-4-----------------|
E|--------------------------------------------------------|
                              . . . . . .

e|--------------------------------------------------------|
B|--------------------------------------------------------|
G|--------------------------------------------------------|
D|----5-7------8/10------5-7------------------------------|
A|-5--------5---------5-------5---8-7-5-3-5-5-------------|
E|--------------------------------------------------------|
                                  . . . . . .

e|--------------------------------------------------------|
B|--------------------------------------------------------|
G|--------------------------------------------------------|
D|----4-6-----6/7----4-6----------------------------------|
A|-4-------4-------4------4---7-6-4-2-4-4-----------------|
E|--------------------------------------------------------|
                              . . . . . .


Riff J
e|--------------------------------------------------------|
B|--------------------------------------------------------|
G|--------------------------------------------------------|
D|----5-7------8/10------5-7------------------------------|
A|-5--------5---------5-------5---8-7-5-3-5-5-------------|
E|--------------------------------------------------------|


e|--------------------------------------------------------|
B|--------------------------------------------------------|
G|--------------------------------------------------------|
D|----4-6-----6/7----4-6----------------------------------|
A|-4-------4-------4------4---7-6-4-2-4-4-----------------|
E|--------------------------------------------------------|


e|--------------------------------------------------------|
B|--------------------------------------------------------|
G|--------------------------------------------------------|
D|----5-7------8/10------5-7------------------------------|
A|-5--------5---------5-------5---8-7-5-3-5-5-------------|
E|--------------------------------------------------------|


e|--------------------------------------------------------|
B|--------------------------------------------------------|
G|--------------------------------------------------------|
D|----4-6-----6/7----4-6----------------------------------|
A|-4-------4-------4------4---7-6-4-2-4-4-----------------|
E|--------------------------------------------------------|

Riff H
e|--------------------------------------------------------|
B|--------------------------------------------------------|
G|--------------------------------------------------------|
D|--------------------------------------------------------|
A|-7-7--7-7--7-7--7-7---7-7---8/10------------------------|
E|-5-5--5-5--5-5--5-5---5-5---6--8------------------------|
   . .  . .  . .  . .   . .

e|--------------------------------------------------------|
B|--------------------------------------------------------|
G|--------------------------------------------------------|
D|--------------------------------------------------------|
A|-7-7--7-7--7-7--7-7---7-7-------------------------------|
E|-5-5--5-5--5-5--5-5---5-5---5---8-7-5-3-5-5-------------|
   . .  . .  . .  . .   . .   .   . . . . . .

Riff I
e|--------------------------------------------------------|
B|--------------------------------------------------------|
G|--------------------------------------------------------|
D|--------------------------------------------------------|
A|-6-6--6-6--6-6--6-6---7/9-------------------------------|
E|-4-4--4-4--4-4--4-4---5/7-------------------------------|
   . .  . .  . .  . .

e|--------------------------------------------------------|
B|--------------------------------------------------------|
G|--------------------------------------------------------|
D|--------------------------------------------------------|
A|-6-6--6-6--6-6--6-6-------------------------------------|
E|-4-4--4-4--4-4--4-4---4-6-7-6-4-2-4-4-------------------|
   . .  . .  . .  . .   . . . . . . . .


Riff J
e|--------------------------------------------------------|
B|--------------------------------------------------------|
G|--------------------------------------------------------|
D|----5-7------8/10------5-7------------------------------|
A|-5--------5---------5-------5---8-7-5-3-5-5-------------|
E|--------------------------------------------------------|


e|--------------------------------------------------------|
B|--------------------------------------------------------|
G|--------------------------------------------------------|
D|----4-6-----6/7----4-6----------------------------------|
A|-4-------4-------4------4---7-6-4-2-4-4-----------------|
E|--------------------------------------------------------|


e|--------------------------------------------------------|
B|--------------------------------------------------------|
G|--------------------------------------------------------|
D|----5-7------8/10------5-7------------------------------|
A|-5--------5---------5-------5---8-7-5-3-5-5-------------|
E|--------------------------------------------------------|


e|--------------------------------------------------------|
B|--------------------------------------------------------|
G|--------------------------------------------------------|
D|----4-6-----6/7----4-6----------------------------------|
A|-4-------4-------4------4---7-6-4-2-4-4-----------------|
E|--------------------------------------------------------|

Riff K
e|--------------------------------------------------------|
B|--------------------------------------------------------|
G|--------------------------------------------------------|
D|-8--8-8---13-12-----------------------------------------|
A|-6--6-6---11-10--10h13p12p10p8--------------------------|
E|--------------------------------------------------------|

e|--------------------------------------------------------|
B|--------------------------------------------------------|
G|--------------------------------------------------------|
D|-8--8-8---13-12-----------------------------------------|
A|-6--6-6---11-10--10h13p12p10p8--------------------------|
E|--------------------------------------------------------|
								(4x)

Riff G (keyboard part)
e|--------------------------------------------------------|
B|--------------------------------------------------------|
G|-12h12p12--10-12-13--12-13--15h16p15--13-15-16--15-13---|
D|--------------------------------------------------------|
A|--------------------------------------------------------|
E|--------------------------------------------------------|

e|--------------------------------------------------------|
B|--------------------------------------------------------|
G|-12h12p12--10-12-13--12-13--15h16p15--13-15-16--15-13---|
D|--------------------------------------------------------|
A|--------------------------------------------------------|
E|--------------------------------------------------------|

  Visit MetalTabs.com for more metal tablature

bottom separator

Contact Us | Privacy Policy | Disclaimer | Legal Notice
Copyright © 2001-2014 MetalTabs.com. All Rights Reserved.