top separator

Home

Forum

What's New

Submit a Tab

FAQ

Links

Contact Us

Link to Us

MuSpy.com

MetalTabs.com logo

Bands

0-9

A

B

C

D

E

F

G

H

I

J

K

L

M

N

O

P

Q

R

S

T

U

V

W

X

Y

Z

Search

What

Where
 

Enslavement of Beauty - "Late Night, Red Wine Blight" Guitar Tab

Plain Text Version
More Enslavement of Beauty Tabs

Hits: 5680
Rated: 2.00 out of 5 (2 votes)
Updated: 2002-08-12 14:03:27

 

By:

Darkenelf

sendpm.gif

email.gif

Important note
This tab is available online because we obtained explicit permission from Enslavement of Beauty or their label.


#----------------------------------PLEASE NOTE---------------------------------#
#This file is the author's own work and represents their interpretation of the #
#song. You may only use this file for private study, scholarship, or research. #
#Unless specified otherwise, this is NOT an official tab from the band members.#
#------------------------------------------------------------------------------#

  Visit MetalTabs.com for more metal tablature
  
Band: Enslavement of Beauty
Album: Megalomania
Song: Late Night, Red Wine Blight
Tabbed by: Martijn Wietsma
Email: dalvanian@yahoo.com
Date: 20-07-2002

Tune down to D

Keyboard part.

Riff A
e|------------------------------------------------------|
B|------------------------------------------------------|
G|------------------------------------------------------|
D|------------------------------------------------------|
A|-6/8----8---8---8-8----10/11----11---11---11-11-------|
E|-4/6--6-6-6-6-6-6-6-----8/-9--9--9-9--9-9--9--9-------|
        .   .   .               .    .    .

e|------------------------------------------------------|
B|------------------------------------------------------|
G|------------------------------------------------------|
D|------------------------------------------------------|
A|-6/8----8---8---8-8----10/11----11---11---11-11-------|
E|-4/6--6-6-6-6-6-6-6-----8/-9--9--9-9--9-9--9--9-------|
        .   .   .               .    .    .

Riff B
e|------------------------------------------------------|
B|------------------------------------------------------|
G|------------------------------------------------------|
D|------------------------------------------------------|
A|-6/8------8-----8-8----10/11-----11------11-11--------|
E|-4/6--6-6-6-6-6-6-6-----8/-9-9-9--9--9-9--9--9--------|
        . .   . .              . .     . .

e|------------------------------------------------------|
B|------------------------------------------------------|
G|------------------------------------------------------|
D|------------------------------------------------------|
A|-6/8------8-----8-8----10/11-----11------11-11--------|
E|-4/6--6-6-6-6-6-6-6-----8/-9-9-9--9--9-9--9--9--------|
        . .   . .              . .     . .

Keyboard part

Riff B
e|------------------------------------------------------|
B|------------------------------------------------------|
G|------------------------------------------------------|
D|------------------------------------------------------|
A|-6/8------8-----8-8----10/11-----11------11-11--------|
E|-4/6--6-6-6-6-6-6-6-----8/-9-9-9--9--9-9--9--9--------|
        . .   . .              . .     . .

e|------------------------------------------------------|
B|------------------------------------------------------|
G|------------------------------------------------------|
D|------------------------------------------------------|
A|-6/8------8-----8-8----10/11-----11------11-11--------|
E|-4/6--6-6-6-6-6-6-6-----8/-9-9-9--9--9-9--9--9--------|
        . .   . .              . .     . .

Riff C
e|------------------------------------------------------|
B|------------------------------------------------------|
G|------------------------------------------------------|
D|------------------------------------9~----------------|
A|-8--------8--------8--------8-------------------------|
E|-6--6-6---6--6-6---6--6-6---6--6-6--------------------|
   .  . .   .  . .   .  . .   .  . .

e|------------------------------------------------------|
B|------------------------------------------------------|
G|------------------------------------------------------|
D|------------------------------------------------------|
A|-8--------8--------8--------8-------------------------|
E|-6--6-6---6--6-6---6--6-6---6--6-6-----6-6-6-6--------|
   .  . .   .  . .   .  . .   .  . .     . . . .

Riff D
e|------------------------------------------------------|
B|------------------------------------------------------|
G|------------------------------------------------------|
D|------------------------------------------------------|
A|-8---10-11---8-7---4-3------8---10-11---8-7---4-3-----|
E|-6----8--9---6-5---2-1------6----8--9---6-5---2-1-----|

e|------------------------------------------------------|
B|------------------------------------------------------|
G|------------------------------------------------------|
D|------------------------------------------------------|
A|-8---10-11---8-7---4-3------8---10-11---8-7---4-3-----|
E|-6----8--9---6-5---2-1------6----8--9---6-5---2-1-----|

Riff E
e|------------------------------------------------------|
B|------------------------------------------------------|
G|------------------------------------------------------|
D|------------------------------------------------------|
A|-8--------8--------8--------8-------------------------|
E|-6--6-6---6--6-6---6--6-6---6--6-6--------------------|
   .  . .   .  . .   .  . .   .  . .

e|------------------------------------------------------|
B|------------------------------------------------------|
G|------------------------------------------------------|
D|------------------------------------------------------|
A|-8--------8--------8--------8-------------------------|
E|-6--6-6---6--6-6---6--6-6---6--6-6--------------------|
   .  . .   .  . .   .  . .   .  . .

e|------------------------------------------------------|
B|------------------------------------------------------|
G|------------------------------------------------------|
D|------------------------------------------------------|
A|-8--------8--------8--------8-------------------------|
E|-6--6-6---6--6-6---6--6-6---6--6-6--------------------|
   .  . .   .  . .   .  . .   .  . .

e|------------------------------------------------------|
B|------------------------------------------------------|
G|------------------------------------------------------|
D|------------------------------------------------------|
A|-8--------8--------8--------8-------------------------|
E|-6--6-6---6--6-6---6--6-6---6--6-6--------------------|
   .  . .   .  . .   .  . .   .  . .

Keyboard part

Riff B
e|------------------------------------------------------|
B|------------------------------------------------------|
G|------------------------------------------------------|
D|------------------------------------------------------|
A|-6/8------8-----8-8----10/11-----11------11-11--------|
E|-4/6--6-6-6-6-6-6-6-----8/-9-9-9--9--9-9--9--9--------|
        . .   . .              . .     . .

e|------------------------------------------------------|
B|------------------------------------------------------|
G|------------------------------------------------------|
D|------------------------------------------------------|
A|-6/8------8-----8-8----10/11-----11------11-11--------|
E|-4/6--6-6-6-6-6-6-6-----8/-9-9-9--9--9-9--9--9--------|
        . .   . .              . .     . .

Riff F
e|------------------------------------------------------|
B|------------------------------------------------------|
G|------------------------------------------------------|
D|------------------------------------------------------|
A|-6/8------8-------8----10/11------11-------11---------|
E|-4/6--6-6-6---6-6-6-----8/-9--9-9--9---9-9--9---------|
        . .     . .             . .      . .

e|------------------------------------------------------|
B|------------------------------------------------------|
G|------------------------------------------------------|
D|------------------------------------------------------|
A|-6/8------8-------8----10/11------11-------11---------|
E|-4/6--6-6-6---6-6-6-----8/-9--9-9--9---9-9--9---------|
        . .     . .             . .      . .

  Visit MetalTabs.com for more metal tablature

bottom separator

Contact Us | Privacy Policy | Disclaimer | Legal Notice
Copyright © 2001-2014 MetalTabs.com. All Rights Reserved.