top separator

Home

Forum

What's New

Submit a Tab

FAQ

Links

Contact Us

Link to Us

MuSpy.com

MetalTabs.com logo

Bands

0-9

A

B

C

D

E

F

G

H

I

J

K

L

M

N

O

P

Q

R

S

T

U

V

W

X

Y

Z

Search

What

Where
 

Enslavement of Beauty - "Dainty Delusive Doll" Guitar Tab

Plain Text Version
More Enslavement of Beauty Tabs

Hits: 6640
Rated: 3.62 out of 5 (8 votes)
Updated: 2002-08-12 14:02:24

 

By:

Darkenelf

sendpm.gif

email.gif

Important note
This tab is available online because we obtained explicit permission from Enslavement of Beauty or their label.


#----------------------------------PLEASE NOTE---------------------------------#
#This file is the author's own work and represents their interpretation of the #
#song. You may only use this file for private study, scholarship, or research. #
#Unless specified otherwise, this is NOT an official tab from the band members.#
#------------------------------------------------------------------------------#

  Visit MetalTabs.com for more metal tablature
  
Band: Enslavement of Beauty
Album: Megalomania
Song: Dainty Delusive Doll
Tabbed by: Martijn Wietsma
Email: dalvanian@yahoo.com
Date: 20-07-2002

Tune down to D

Riff A
e|------------------------------------------------------|
B|------------------------------------------------------|
G|------------------------------------------------------|
D|------------------------------------------------------|
A|-8-----8-----8-----8------3-----3-----3-----3---------|
E|-6-6-6-6-6-6-6-6-6-6-6-6--1-1-1-1-1-1-1-1-1-1-1-1-----|
     . .   . .   . .   . .    . .   . .   . .   . .
e|------------------------------------------------------|
B|------------------------------------------------------|
G|------------------------------------------------------|
D|---------------------------6-6--6-6--3-3--3/5---------|
A|-4-----4------6-----6------4-4--4-4--1-1--1/3---------|
E|-2-2-2-2-2-2--4-4-4-4-4-4-----------------------------|
     . .   . .    . .   . .

Riff B
e|------------------------------------------------------|
B|------------------------------------------------------|
G|------------------------------------------------------|
D|------------------------------------------------------|
A|------------------------------------------------------|
E|-6-6--6-6--6-6---6-6--6-6--6-6------------------------|
   . .  . .  . .   . .  . .  . .
e|------------------------------------------------------|
B|------------------------------------------------------|
G|------------------------------------------------------|
D|------------------------------------------------------|
A|------------------------------------------------------|
E|-1-1--1-1--1-1---1-1--1-1--1-1------------------------|
   . .  . .  . .   . .  . .  . .
e|------------------------------------------------------|
B|------------------------------------------------------|
G|------------------------------------------------------|
D|--------------------------------6-6--6-6--3-3--3/5----|
A|--------------------------------4-4--4-4--1-1--1/3----|
E|-2-2--2-2--2-2---4-4--4-4--4-4------------------------|
   . .  . .  . .   . .  . .  . .

Riff C
e|------------------------------------------------------|
B|------------------------------------------------------|
G|------------------------------------------------------|
D|------------------------------------------------------|
A|-8---8-8---8-3~-------8---8-8---8-3~------------------|
E|-6---6-6---6-1--------6---6-6---6-1-------------------|
   .   . .   .          .   . .   .

Riff D
e|------------------------------------------------------|
B|------------------------------------------------------|
G|------------------------------------------------------|
D|------------------------------------------------------|
A|-4-4--4-4--4-4---6-6--6-6--6-6------------------------|
E|-2-2--2-2--2-2---4-4--4-4--4-4------------------------|
   . .  . .  . .   . .  . .  . .

e|------------------------------------------------------|
B|------------------------------------------------------|
G|------------------------------------------------------|
D|------------------------------------------------------|
A|-4-4--4-4--4-4---6-6--6-6--6-6------------------------|
E|-2-2--2-2--2-2---4-4--4-4--4-4------------------------|
   . .  . .  . .   . .  . .  . .

Riff B (play this fast)
e|------------------------------------------------------|
B|------------------------------------------------------|
G|------------------------------------------------------|
D|------------------------------------------------------|
A|------------------------------------------------------|
E|-6-6--6-6--6-6---6-6--6-6--6-6------------------------|
   . .  . .  . .   . .  . .  . .
e|------------------------------------------------------|
B|------------------------------------------------------|
G|------------------------------------------------------|
D|------------------------------------------------------|
A|------------------------------------------------------|
E|-1-1--1-1--1-1---1-1--1-1--1-1------------------------|
   . .  . .  . .   . .  . .  . .
e|------------------------------------------------------|
B|------------------------------------------------------|
G|------------------------------------------------------|
D|--------------------------------6-6--6-6--3-3--3/5----|
A|--------------------------------4-4--4-4--1-1--1/3----|
E|-2-2--2-2--2-2---4-4--4-4--4-4------------------------|
   . .  . .  . .   . .  . .  . .

Riff E
e|------------------------------------------------------|
B|------------------------------------------------------|
G|------------------------------------------------------|
D|------------------------------------------------------|
A|-8-8--8-8--8-8------8-8--8-8--8-8---------------------|
E|-6-6--6-6--6-6------6-6--6-6--6-6---------------------|
   . .  . .  . .      . .  . .  . .
e|------------------------------------------------------|
B|------------------------------------------------------|
G|------------------------------------------------------|
D|------------------------------------------------------|
A|-8-8--8-8--8-8------8-8--8-8--8-8---------------------|
E|-6-6--6-6--6-6------6-6--6-6--6-6---------------------|
   . .  . .  . .      . .  . .  . .
e|------------------------------------------------------|
B|------------------------------------------------------|
G|------------------------------------------------------|
D|------------------------------------------------------|
A|-8-8--8-8--8-8------8-8--8-8--8-8---------------------|
E|-6-6--6-6--6-6------6-6--6-6--6-6---------------------|
   . .  . .  . .      . .  . .  . .
e|------------------------------------------------------|
B|------------------------------------------------------|
G|------------------------------------------------------|
D|------------------------------------------------------|
A|-8-8--8-8--8-8------8-8--8-8--8-8---------------------|
E|-6-6--6-6--6-6------6-6--6-6--6-6---------------------|
   . .  . .  . .      . .  . .  . .

Riff F
e|------------------------------------------------------|
B|------------------------------------------------------|
G|------------------------------------------------------|
D|------------------------------------------------------|
A|-8---8-8--8---8-8--6---6-6--4---4-4-----4-----4-6-----|
E|-6-6-6-6--6-6-6-6--4-4-4-4--2-2-2-2-2-2-2-2-2-2-4-----|
     .        .        .        .     . .   . .

Solo... repeat Riff F under solo

Riff A
e|------------------------------------------------------|
B|------------------------------------------------------|
G|------------------------------------------------------|
D|------------------------------------------------------|
A|-8-----8-----8-----8------3-----3-----3-----3---------|
E|-6-6-6-6-6-6-6-6-6-6-6-6--1-1-1-1-1-1-1-1-1-1-1-1-----|
     . .   . .   . .   . .    . .   . .   . .   . .
e|------------------------------------------------------|
B|------------------------------------------------------|
G|------------------------------------------------------|
D|---------------------------6-6--6-6--3-3--3/5---------|
A|-4-----4------6-----6------4-4--4-4--1-1--1/3---------|
E|-2-2-2-2-2-2--4-4-4-4-4-4-----------------------------|
     . .   . .    . .   . .

Riff B
e|------------------------------------------------------|
B|------------------------------------------------------|
G|------------------------------------------------------|
D|------------------------------------------------------|
A|------------------------------------------------------|
E|-6-6--6-6--6-6---6-6--6-6--6-6------------------------|
   . .  . .  . .   . .  . .  . .
e|------------------------------------------------------|
B|------------------------------------------------------|
G|------------------------------------------------------|
D|------------------------------------------------------|
A|------------------------------------------------------|
E|-1-1--1-1--1-1---1-1--1-1--1-1------------------------|
   . .  . .  . .   . .  . .  . .
e|------------------------------------------------------|
B|------------------------------------------------------|
G|------------------------------------------------------|
D|--------------------------------6-6--6-6--3-3--3/5----|
A|--------------------------------4-4--4-4--1-1--1/3----|
E|-2-2--2-2--2-2---4-4--4-4--4-4------------------------|
   . .  . .  . .   . .  . .  . .

Riff C
e|------------------------------------------------------|
B|------------------------------------------------------|
G|------------------------------------------------------|
D|------------------------------------------------------|
A|-8---8-8---8-3~-------8---8-8---8-3~------------------|
E|-6---6-6---6-1--------6---6-6---6-1-------------------|
   .   . .   .          .   . .   .

Riff D
e|------------------------------------------------------|
B|------------------------------------------------------|
G|------------------------------------------------------|
D|------------------------------------------------------|
A|-4-4--4-4--4-4---6-6--6-6--6-6------------------------|
E|-2-2--2-2--2-2---4-4--4-4--4-4------------------------|
   . .  . .  . .   . .  . .  . .

e|------------------------------------------------------|
B|------------------------------------------------------|
G|------------------------------------------------------|
D|------------------------------------------------------|
A|-4-4--4-4--4-4---6-6--6-6--6-6------------------------|
E|-2-2--2-2--2-2---4-4--4-4--4-4------------------------|
   . .  . .  . .   . .  . .  . .

Riff B (play this fast)
e|------------------------------------------------------|
B|------------------------------------------------------|
G|------------------------------------------------------|
D|------------------------------------------------------|
A|------------------------------------------------------|
E|-6-6--6-6--6-6---6-6--6-6--6-6------------------------|
   . .  . .  . .   . .  . .  . .
e|------------------------------------------------------|
B|------------------------------------------------------|
G|------------------------------------------------------|
D|------------------------------------------------------|
A|------------------------------------------------------|
E|-1-1--1-1--1-1---1-1--1-1--1-1------------------------|
   . .  . .  . .   . .  . .  . .
e|------------------------------------------------------|
B|------------------------------------------------------|
G|------------------------------------------------------|
D|--------------------------------6-6--6-6--3-3--3/5----|
A|--------------------------------4-4--4-4--1-1--1/3----|
E|-2-2--2-2--2-2---4-4--4-4--4-4------------------------|
   . .  . .  . .   . .  . .  . .

  Visit MetalTabs.com for more metal tablature

bottom separator

Contact Us | Privacy Policy | Disclaimer | Legal Notice
Copyright © 2001-2014 MetalTabs.com. All Rights Reserved.