top separator

Home

Forum

What's New

Submit a Tab

FAQ

Links

Contact Us

Link to Us

MuSpy.com

MetalTabs.com logo

Bands

0-9

A

B

C

D

E

F

G

H

I

J

K

L

M

N

O

P

Q

R

S

T

U

V

W

X

Y

Z

Search

What

Where
 

Finntroll - "Bastuvisan" Guitar Tab

Plain Text Version
More Finntroll Tabs

Hits: 5861
Rated: 4.67 out of 5 (3 votes)
Updated: 2002-08-12 13:04:41

 

By:

Darkenelf

sendpm.gif

email.gif

Important note
This tab is available online because we obtained explicit permission from Finntroll or their label.


#----------------------------------PLEASE NOTE---------------------------------#
#This file is the author's own work and represents their interpretation of the #
#song. You may only use this file for private study, scholarship, or research. #
#Unless specified otherwise, this is NOT an official tab from the band members.#
#------------------------------------------------------------------------------#

  Visit MetalTabs.com for more metal tablature
  
Band: Finntroll
Album: Midnattens Widunder
Song: Bastuvisan
Tabbed by: Martijn Wietsma (Darkenelf)
Email: dalvanian@yahoo.com

Tune down to D
. = palm mute

Riff A
e|-----------------------------------------------------------|
B|-----------------------------------------------------------|
G|-----------------------------------------------------------|
D|-----------------------------------------------------------|
A|-10---5---6---8-----10---5---6---8-------------------------|
E|--8---3---4---6------8---3---4---6-------------------------|
    .   .   .   .      .   .   .   .
e|-----------------------------------------------------------|
B|-----------------------------------------------------------|
G|-----------------------------------------------------------|
D|-----------------------------------------------------------|
A|-10---5---6---8-----10---5---6---8-------------------------|
E|--8---3---4---6------8---3---4---6-------------------------|
    .   .   .   .      .   .   .   .

Riff B
e|-----------------------------------------------------------|
B|-----------------------------------------------------------|
G|-----------------------------------------------------------|
D|-----------------------------------------------------------|
A|-10-5-6-6-8--10-5-6-6-8--10-5-6-6-8--10-5-6-6-13-----------|
E|--8-3-4-4-6---8-3-4-4-6---8-3-4-4-6---8-3-4-4-11-----------|

e|-----------------------------------------------------------|
B|-----------------------------------------------------------|
G|-----------------------------------------------------------|
D|-----------------------------------------------------------|
A|-10-5-6-6-8--10-5-6-6-8--10-5-6-6-8--10-5-6-6-13-----------|
E|--8-3-4-4-6---8-3-4-4-6---8-3-4-4-6---8-3-4-4-11-----------|

e|-----------------------------------------------------------|
B|-----------------------------------------------------------|
G|-----------------------------------------------------------|
D|-----------------------------------------------------------|
A|-10-5-6-6-8--10-5-6-6-8--10-5-6-6-8--10-5-6-6-13-----------|
E|--8-3-4-4-6---8-3-4-4-6---8-3-4-4-6---8-3-4-4-11-----------|

e|-----------------------------------------------------------|
B|-----------------------------------------------------------|
G|-----------------------------------------------------------|
D|-----------------------------------------------------------|
A|-10-5-6-6-8--10-5-6-6-8--10-5-6-6-8--10-5-6-6-13-----------|
E|--8-3-4-4-6---8-3-4-4-6---8-3-4-4-6---8-3-4-4-11-----------|

Riff C
e|-----------------------------------------------------------|
B|-----------------------------------------------------------|
G|-10-5-6-6-8--10-5-6-6-8--10-5-6-6-8--10-5-6-6-13-----------|
D|--8-3-4-4-6---8-3-4-4-6---8-3-4-4-6---8-3-4-4-11-----------|
A|-----------------------------------------------------------|
E|-----------------------------------------------------------|

e|-----------------------------------------------------------|
B|-----------------------------------------------------------|
G|-10-5-6-6-8--10-5-6-6-8--10-5-6-6-8--10-5-6-6-13-----------|
D|--8-3-4-4-6---8-3-4-4-6---8-3-4-4-6---8-3-4-4-11-----------|
A|-----------------------------------------------------------|
E|-----------------------------------------------------------|

Riff B
e|-----------------------------------------------------------|
B|-----------------------------------------------------------|
G|-----------------------------------------------------------|
D|-----------------------------------------------------------|
A|-10-5-6-6-8--10-5-6-6-8--10-5-6-6-8--10-5-6-6-13-----------|
E|--8-3-4-4-6---8-3-4-4-6---8-3-4-4-6---8-3-4-4-11-----------|

e|-----------------------------------------------------------|
B|-----------------------------------------------------------|
G|-----------------------------------------------------------|
D|-----------------------------------------------------------|
A|-10-5-6-6-8--10-5-6-6-8--10-5-6-6-8--10-5-6-6-13-----------|
E|--8-3-4-4-6---8-3-4-4-6---8-3-4-4-6---8-3-4-4-11-----------|

e|-----------------------------------------------------------|
B|-----------------------------------------------------------|
G|-----------------------------------------------------------|
D|-----------------------------------------------------------|
A|-10-5-6-6-8--10-5-6-6-8--10-5-6-6-8--10-5-6-6-13-----------|
E|--8-3-4-4-6---8-3-4-4-6---8-3-4-4-6---8-3-4-4-11-----------|

e|-----------------------------------------------------------|
B|-----------------------------------------------------------|
G|-----------------------------------------------------------|
D|-----------------------------------------------------------|
A|-10-5-6-6-8--10-5-6-6-8--10-5-6-6-8--10-5-6-6-13-----------|
E|--8-3-4-4-6---8-3-4-4-6---8-3-4-4-6---8-3-4-4-11-----------|

  Visit MetalTabs.com for more metal tablature

bottom separator

Contact Us | Privacy Policy | Disclaimer | Legal Notice
Copyright © 2001-2014 MetalTabs.com. All Rights Reserved.