top separator

Home

Forum

What's New

Submit a Tab

FAQ

Links

Contact Us

Link to Us

MetalTabs.com logo

Bands

0-9

A

B

C

D

E

F

G

H

I

J

K

L

M

N

O

P

Q

R

S

T

U

V

W

X

Y

Z

Search

What

Where
 

Ensiferum - "Hero In A Dream" Guitar Tab

Plain Text Version
More Ensiferum Tabs

Hits: 20681
Rated: 3.00 out of 5 (30 votes)
Updated: 2002-08-04 08:07:13

 

By:

Darkenelf

sendpm.gif

email.gif

Important note
This tab is available online because we obtained explicit permission from Ensiferum or their label.


#----------------------------------PLEASE NOTE---------------------------------#
#This file is the author's own work and represents their interpretation of the #
#song. You may only use this file for private study, scholarship, or research. #
#Unless specified otherwise, this is NOT an official tab from the band members.#
#------------------------------------------------------------------------------#

  Visit MetalTabs.com for more metal tablature
  
Band: Ensiferum
Album: Ensiferum
Song: Hero in a Dream
Tabbed by: Martijn Wietsma (Darkenelf)
Email: dalvanian@yahoo.com
Date: 16-07-2002

Tune down to D

Riff A
e|------------------------------------------------------|
B|------------------------------------------------------|
G|------------------------------------------------------|
D|-------------------------7-9-10-----------------------|
A|-7h9-7h9h10--9h10p9-7-7---------10-9-7----------------|
E|------------------------------------------------------|

e|------------------------------------------------------|
B|------------------------------------------------------|
G|------------------------------------------------------|
D|------------------------9-12p10p9--7h9h10p9p7---------|
A|-7h9-7h9h10--9h10p9-7-7-------------------------------|
E|------------------------------------------------------|

e|------------------------------------------------------|
B|------------------------------------------------------|
G|------------------------------------------------------|
D|-------------------------7-9-10-----------------------|
A|-7h9-7h9h10--9h10p9-7-7---------10-9-7----------------|
E|------------------------------------------------------|

e|------------------------------------------------------|
B|------------------------------------------------------|
G|------------------------------------------------------|
D|------------------------9-12p10p9--7h9h10p9p7---------|
A|-7h9-7h9h10--9h10p9-7-7-------------------------------|
E|------------------------------------------------------|

Riff B
e|------------------------------------------------------|
B|------------------------------------------------------|
G|------------------------------------------------------|
D|-----------3----------------9---------7---------------|
A|-3---------1-1-1-1-1-3-6-8--7-7-7-7-7-5-5-5-5-5-3-6-8-|
E|-1-1-1-1-1-----------1-4-6----------------------1-4-6-|
     . . . .   . . . .          . . . .   . . . .

e|------------------------------------------------------|
B|------------------------------------------------------|
G|------------------------------------------------------|
D|-----------3----------------9---------7---------------|
A|-3---------1-1-1-1-1-3-6-8--7-7-7-7-7-5-5-5-5-5-3-6-8-|
E|-1-1-1-1-1-----------1-4-6----------------------1-4-6-|
     . . . .   . . . .          . . . .   . . . .

Riff A
e|------------------------------------------------------|
B|------------------------------------------------------|
G|------------------------------------------------------|
D|-------------------------7-9-10-----------------------|
A|-7h9-7h9h10--9h10p9-7-7---------10-9-7----------------|
E|------------------------------------------------------|

e|------------------------------------------------------|
B|------------------------------------------------------|
G|------------------------------------------------------|
D|------------------------9-12p10p9--7h9h10p9p7---------|
A|-7h9-7h9h10--9h10p9-7-7-------------------------------|
E|------------------------------------------------------|

e|------------------------------------------------------|
B|------------------------------------------------------|
G|------------------------------------------------------|
D|-------------------------7-9-10-----------------------|
A|-7h9-7h9h10--9h10p9-7-7---------10-9-7----------------|
E|------------------------------------------------------|

e|------------------------------------------------------|
B|------------------------------------------------------|
G|------------------------------------------------------|
D|------------------------9-12p10p9--7h9h10p9p7---------|
A|-7h9-7h9h10--9h10p9-7-7-------------------------------|
E|------------------------------------------------------|

Riff C
e|------------------------------------------------------|
B|------------------------------------------------------|
G|------------------------------------------------------|
D|-3--5-6-5---8-10-11---8-6-5---10-10-------------------|
A|-1--3-4-3---6--8--9---6-4-3----8--8-------------------|
E|------------------------------------------------------|

Riff D
e|------------------------------------------------------|
B|------------------------------------------------------|
G|------------------------------------------------------|
D|-3--5-6-5---8-10-11---11---10---8-6-5-----------------|
A|-1--3-4-3---6--8--9----9----8---6-4-3-----------------|
E|------------------------------------------------------|

e|------------------------------------------------------|
B|------------------------------------------------------|
G|------------------------------------------------------|
D|-3--5-6-5---8-10-11---11---10---8-6-5-----------------|
A|-1--3-4-3---6--8--9----9----8---6-4-3-----------------|
E|------------------------------------------------------|

e|------------------------------------------------------|
B|------------------------------------------------------|
G|------------------------------------------------------|
D|-3--5-6-5---8-10-11---11---10---8-6-5-----------------|
A|-1--3-4-3---6--8--9----9----8---6-4-3-----------------|
E|------------------------------------------------------|

e|------------------------------------------------------|
B|------------------------------------------------------|
G|------------------------------------------------------|
D|-3--5-6-5---8-10-11---11---10---8-6-5-----------------|
A|-1--3-4-3---6--8--9----9----8---6-4-3-----------------|
E|------------------------------------------------------|

Riff A
e|------------------------------------------------------|
B|------------------------------------------------------|
G|------------------------------------------------------|
D|-------------------------7-9-10-----------------------|
A|-7h9-7h9h10--9h10p9-7-7---------10-9-7----------------|
E|------------------------------------------------------|

e|------------------------------------------------------|
B|------------------------------------------------------|
G|------------------------------------------------------|
D|------------------------9-12p10p9--7h9h10p9p7---------|
A|-7h9-7h9h10--9h10p9-7-7-------------------------------|
E|------------------------------------------------------|

Riff E (in song it's a higher tone)
e|------------------------------------------------------|
B|------------------------------------------------------|
G|------------------------------------------------------|
D|-5--6p5h6-/8-/10-10-10--8h10h11--10p8h10-10p8---------|
A|----------------------------------------------11-10-8-|
E|------------------------------------------------------|

e|------------------------------------------------------|
B|------------------------------------------------------|
G|------------------------------------------------------|
D|-5--6p5h6-/8-/10-10-10--8h10h11--10p8h10-10p8---------|
A|----------------------------------------------11-10-8-|
E|------------------------------------------------------|

Riff F
e|------------------------------------------------------|
B|-------------------------6h8h9-6-6---9p8-6h8p6-5------|
G|-5h7h8-5-5---8p7p5-3-3--------------------------------|
D|------------------------------------------------------|
A|------------------------------------------------------|
E|------------------------------------------------------|

e|------------------------------------------------------|
B|-------------------------6h8h9-6-6---9p8-6h8p6-5------|
G|-5h7h8-5-5---8p7p5-3-3--------------------------------|
D|------------------------------------------------------|
A|------------------------------------------------------|
E|------------------------------------------------------|

Riff G
e|------------------------------------------------------|
B|------------------------------------------------------|
G|------------------------------------------------------|
D|--------12--8--10-------------12--8--10---------------|
A|-8--6---10--6---8------8--6---10--6---8---------------|
E|-6--4------------------6--4---------------------------|

Riff H
e|------------------------------------------------------|
B|------------------------------------------------------|
G|------------------------------------------------------|
D|-----------------------12--8--10----------------------|
A|-8----------6----------10--6---8----------------------|
E|-6-6-6-6-6--4-4-4-4-4---------------------------------|
     . . . .    . . . .

e|------------------------------------------------------|
B|------------------------------------------------------|
G|------------------------------------------------------|
D|-----------------------12--8--10----------------------|
A|-8----------6----------10--6---8----------------------|
E|-6-6-6-6-6--4-4-4-4-4---------------------------------|
     . . . .    . . . .

Riff I
e|------------------------------------------------------|
B|------------------------------------------------------|
G|------------------------------------------------------|
D|------------------------9---------------10------------|
A|-8--10--8-8-8--11-11-11-7--6-6-6--9-9-9--8------------|
E|-6---8------------------------------------------------|
          . . .  .   .  .    . . .  . . .

e|------------------------------------------------------|
B|------------------------------------------------------|
G|------------------------------------------------------|
D|------------------------9---------------10------------|
A|-8--10--8-8-8--11-11-11-7--6-6-6--9-9-9--8------------|
E|-6---8------------------------------------------------|
          . . .  .   .  .    . . .  . . .

Riff C
e|------------------------------------------------------|
B|------------------------------------------------------|
G|------------------------------------------------------|
D|-3--5-6-5---8-10-11---8-6-5---10-10-------------------|
A|-1--3-4-3---6--8--9---6-4-3----8--8-------------------|
E|------------------------------------------------------|

Riff D
e|------------------------------------------------------|
B|------------------------------------------------------|
G|------------------------------------------------------|
D|-3--5-6-5---8-10-11---11---10---8-6-5-----------------|
A|-1--3-4-3---6--8--9----9----8---6-4-3-----------------|
E|------------------------------------------------------|

e|------------------------------------------------------|
B|------------------------------------------------------|
G|------------------------------------------------------|
D|-3--5-6-5---8-10-11---11---10---8-6-5-----------------|
A|-1--3-4-3---6--8--9----9----8---6-4-3-----------------|
E|------------------------------------------------------|

e|------------------------------------------------------|
B|------------------------------------------------------|
G|------------------------------------------------------|
D|-3--5-6-5---8-10-11---11---10---8-6-5-----------------|
A|-1--3-4-3---6--8--9----9----8---6-4-3-----------------|
E|------------------------------------------------------|

e|------------------------------------------------------|
B|------------------------------------------------------|
G|------------------------------------------------------|
D|-3--5-6-5---8-10-11---11---10---8-6-5-----------------|
A|-1--3-4-3---6--8--9----9----8---6-4-3-----------------|
E|------------------------------------------------------|

Riff B
e|------------------------------------------------------|
B|------------------------------------------------------|
G|------------------------------------------------------|
D|-----------3----------------9---------7---------------|
A|-3---------1-1-1-1-1-3-6-8--7-7-7-7-7-5-5-5-5-5-3-6-8-|
E|-1-1-1-1-1-----------1-4-6----------------------1-4-6-|
     . . . .   . . . .          . . . .   . . . .

e|------------------------------------------------------|
B|------------------------------------------------------|
G|------------------------------------------------------|
D|-----------3----------------9---------7---------------|
A|-3---------1-1-1-1-1-3-6-8--7-7-7-7-7-5-5-5-5-5-3-6-8-|
E|-1-1-1-1-1-----------1-4-6----------------------1-4-6-|
     . . . .   . . . .          . . . .   . . . .

Riff J Solo
e|------------------------------------------------------|
B|------------------------------------------------------|
G|-7--10\8-5--7-8p7-5p3---5p3h5-8--7-10\8-5--7-8p7-5p3--|
D|------------------------------------------------------|
A|------------------------------------------------------|
E|------------------------------------------------------|

Riff A
e|------------------------------------------------------|
B|------------------------------------------------------|
G|------------------------------------------------------|
D|-------------------------7-9-10-----------------------|
A|-7h9-7h9h10--9h10p9-7-7---------10-9-7----------------|
E|------------------------------------------------------|

e|------------------------------------------------------|
B|------------------------------------------------------|
G|------------------------------------------------------|
D|------------------------9-12p10p9--7h9h10p9p7---------|
A|-7h9-7h9h10--9h10p9-7-7-------------------------------|
E|------------------------------------------------------|

e|------------------------------------------------------|
B|------------------------------------------------------|
G|------------------------------------------------------|
D|-------------------------7-9-10-----------------------|
A|-7h9-7h9h10--9h10p9-7-7---------10-9-7----------------|
E|------------------------------------------------------|

e|------------------------------------------------------|
B|------------------------------------------------------|
G|------------------------------------------------------|
D|------------------------9-12p10p9--7h9h10p9p7---------|
A|-7h9-7h9h10--9h10p9-7-7-------------------------------|
E|------------------------------------------------------|

  Visit MetalTabs.com for more metal tablature

bottom separator

Contact Us | Privacy Policy | Disclaimer | Legal Notice
Copyright © 2001-2014 MetalTabs.com. All Rights Reserved.