top separator

Home

Forum

What's New

Submit a Tab

FAQ

Links

Contact Us

Link to Us

MuSpy.com

MetalTabs.com logo

Bands

0-9

A

B

C

D

E

F

G

H

I

J

K

L

M

N

O

P

Q

R

S

T

U

V

W

X

Y

Z

Search

What

Where
 

Sacramentum - "Abyss Of Time" Guitar Tab

Plain Text Version
More Sacramentum Tabs

Hits: 5155
Rated: 4.33 out of 5 (3 votes)
Updated: 2002-08-04 07:29:26

 

By:

Darkenelf

sendpm.gif

email.gif

Important note
We did our best to reach Sacramentum and ask for their permission to publish this tab. Unfortunately they did not respond to our requests or we could not find a way to contact them. This tab is available online until Sacramentum tells us to take it down.


#----------------------------------PLEASE NOTE---------------------------------#
#This file is the author's own work and represents their interpretation of the #
#song. You may only use this file for private study, scholarship, or research. #
#Unless specified otherwise, this is NOT an official tab from the band members.#
#------------------------------------------------------------------------------#

  Visit MetalTabs.com for more metal tablature
  
Band: Sacramentum
Album: The Coming of Chaos
Song: Abyss of Time
Tabbed by: Martijn Wietsma
Email: dalvanian@yahoo.com

Tune down to D
. = palm mute
~ = hold this note for a few seconds

Riff A (continue this playing during the whole song)
e|----------------------------------------------------------|
B|----------------------------------------------------------|
G|-9-8---------8------------9-8---------8-------------------|
D|-----9-8---6----9-8-----------9-8---6----9-8--------------|
A|----------------------------------------------------------|
E|----------------------------------------------------------|

e|----------------------------------------------------------|
B|----------------------------------------------------------|
G|-9-8---------8------------9-8---------8-------------------|
D|-----9-8---6----9-8-----------9-8---6----9-8--------------|
A|----------------------------------------------------------|
E|----------------------------------------------------------|

Riff B (continue this playing during the whole song)
e|----------------------------------------------------------|
B|----------------------------------------------------------|
G|----------------------------------------------------------|
D|----------------------------------------------------------|
A|--------6~--9~--8~--5~-----6~--9~--8~--5~-----------------|
E|-4-4-4--4-------------------------------------------------|
   . . .

  Visit MetalTabs.com for more metal tablature

bottom separator

Contact Us | Privacy Policy | Disclaimer | Legal Notice
Copyright © 2001-2014 MetalTabs.com. All Rights Reserved.