top separator

Home

Forum

What's New

Submit a Tab

FAQ

Links

Contact Us

Link to Us

MetalTabs.com logo

Bands

0-9

A

B

C

D

E

F

G

H

I

J

K

L

M

N

O

P

Q

R

S

T

U

V

W

X

Y

Z

Search

What

Where
 

Godkiller - "the end of the world" Guitar Tab

Plain Text Version
More Godkiller Tabs

Hits: 4329
Rated: 4.00 out of 5 (4 votes)
Updated: 2002-08-04 07:14:05

 

Important note
This tab is available online because we obtained explicit permission from Godkiller or their label.


#----------------------------------PLEASE NOTE---------------------------------#
#This file is the author's own work and represents their interpretation of the #
#song. You may only use this file for private study, scholarship, or research. #
#Unless specified otherwise, this is NOT an official tab from the band members.#
#------------------------------------------------------------------------------#

  Visit MetalTabs.com for more metal tablature
  
Band:  Godkiller
Album: The End Of The World
Song:  The End Of The World

Copyright© 1998 - Wounded Love Records / Avantgarde Music

Tabbed by: Xythen
Email:     xythen@hotmail.com
Version 1.0 July 2002

Tuning: Down 1˝ steps (C# G# E B F# C#).


.      = palm mute
:      = repeated part
~      = vibrato
[x2]   = number of repeated times
/ or \ = slide up or down



Intro/Pre-Verse Part (Guitar 1 = Keyboard arranged for guitar)

Guitar 1               [x2]                       [x2]
|----12-10-12----12----12--|-----12-10-12----12----12-|
|-------------13----12-----|--------------13----12----|
|:------------------------:|:------------------------:|
|:------------------------:|:------------------------:|
|--------------------------|--------------------------|
|--0-----------------------|---7----------------------|

This is hard to play, but possible if you use your 1st, 3rd and 4th fingers.
If your hands won't stretch to this, you could play it an octave lower
like this:

                 [x2]                 [x2]
|--------------------|--------------------|
|--------------------|--------------------|
|:---9-7-9----9---9-:|:---9-7-9----9---9-:|
|:---------10---9---:|:---------10---9---:|
|--------------------|--------------------|
|--0-----------------|--7-----------------|

Guitar 2       [x2]
|--------------------|---------------------------------|
|--------------------|---------------------------------|
|:------------------:|---------------------------------|
|:------------------:|-4--44-4-44-4-4-4-4--44-4-44-4-7-|
|--2--22-2-22-2-2-5--|-2--22-2-32-2-2-2-2--22-2-32-2-5-|
|--0--00-0-10-0-0-3--|---------------------------------|
      ..   ..   .         ..   ..   . .    ..   ..



Verse                 [x2]
|-------------------------|-------------------------------------|
|-------------------------|-------------------------------------|
|:---/12-12-11-11-9-9-\4-:|----7-7-9-9-11-11-4----7-7-9-9-11-12-|
|:-----------------------:|-------------------------------------|
|-------------------------|-------------------------------------|
|--0----------------------|-/7-----------------/7---------------|



Bridge (Guitar 1 & 2 = Keyboard arranged for guitar)

Guitar 1        [x2]
|----7-5-7---5------|---7-5-7---5-------7-5-7---5-----|
|----------8---7-8--|---------8---7-8-------------7-8-|
|:-----------------:|---------------------------------|
|:-----------------:|---------------------------------|
|-------------------|---------------------------------|
|--0----------------|-2---------------3-------5-------|

Guitar 2    [x3]
|---------------|-------------|
|---------------|-------------|
|:-------------:|-------------|
|:---9-7---4-5-:|---4-5---7-5-|
|--7-----7------|-7-----7-----|
|---------------|-------------|

Guitar 3
|------------------|
|------------------|
|------------------|
|------------------|
|-2--/7~~-2--/5--3-|
|------------------|



Guitar 1 for final Pre-Verse part (also played quietly during final verse)

                       [x2]                       [x2]
|--------------------------|--------------------------|
|--------------------------|--77777777----------------|
|:-9999999977777744444477-:|:---------77777744444477-:|
|:------------------------:|:------------------------:|
|--------------------------|--------------------------|
|--------------------------|--------------------------|



Outro (Keyboard arranged for guitar)
|-------------------|
|-------------------|
|-------4-----------|
|-----5---5-7---4---|
|-7-----------------|
|-------------------|



That's it!
If you have any questions or corrections (or requests!) feel free to email me.

  Visit MetalTabs.com for more metal tablature

bottom separator

Contact Us | Privacy Policy | Disclaimer | Legal Notice
Copyright © 2001-2014 MetalTabs.com. All Rights Reserved.