top separator

Home

Forum

What's New

Submit a Tab

FAQ

Links

Contact Us

Link to Us

MetalTabs.com logo

Bands

0-9

A

B

C

D

E

F

G

H

I

J

K

L

M

N

O

P

Q

R

S

T

U

V

W

X

Y

Z

Search

What

Where
 

Sacrifice - "Beneath What You See" Guitar Tab

Plain Text Version
More Sacrifice Tabs

Hits: 3508
Rated: 5.00 out of 5 (1 vote)
Updated: 2002-08-04 07:05:51

 

Important note
This tab is available online because we obtained explicit permission from Sacrifice or their label.


#----------------------------------PLEASE NOTE---------------------------------#
#This file is the author's own work and represents their interpretation of the #
#song. You may only use this file for private study, scholarship, or research. #
#Unless specified otherwise, this is NOT an official tab from the band members.#
#------------------------------------------------------------------------------#

  Visit MetalTabs.com for more metal tablature
  
Artist: Sacrifice
Album: Apocalypse Inside
Track: Beneath What You See
Tabbed by: Phil Tuncap (the_Iced_Earth@hotmail.com)

7.05.02

1/2 step down

Intro

Guitar 1
eb|------------------------------------------------------------|
Bb|------------------------------------------------------------|
Gb|------------------------------------------------------------|
Db|---------------------------------------------------------11-|
Ab|---------------------------------------------------------9--|
Eb|------------------------------------------------------------|

Guitar 2
eb|------------------------------------------------------------|
Bb|---------9--------------------------------9-----------------|
Gb|-10--11--10-----------------------10--11--10----------------|
Db|-0---0---0------------------------0---0---0--------------11-|
Ab|---------------------------------------------------------9--|
Eb|------------------------------------------------------------|

Guitar 1
eb|------------------------------------------------------------|
Bb|------------------------------------------------------------|
Gb|------------------------------------------------------------|
Db|-10------------------------------------------------------11-|
Ab|-8-------------------------------------------------------9--|
Eb|-----------------------------------------------0-0---0-0----|
                                                  * *   * *
Guitar 2
eb|------------------------------------------------------------|
Bb|---------9--------------------------------9-----------------|
Gb|-10--11--10-----------------------10--11--10----------------|
Db|-0---0---0------------------------0---0---0--------------11-|
Ab|---------------------------------------------------------9--|
Eb|-----------------------------------------------0-0---0-0----|
			                          * *   * *

Riff 1 x4

eb|------------------------------------------------------------|
Bb|---------9--------------------------------9-----------------|
Gb|-10--11--10-----------------------10--11--10----------------|
Db|-0---0---0------------------------0---0---0--------------11-|
Ab|---------------------------------------------------------9--|
Eb|--------------0-0-----0-0-----0-0--------------0-0---0-0----|
                 * *     * *     * *              * *   * *

Riff 2 x4

Guitar 1
eb|-----------------------|---|
Bb|-----------------------|---|
Gb|----0------------------|---|
Db|-4-----4------4------5-|-2-|
Ab|-4-------4-----------5-|-2-|
Eb|-2-------2-------2-2-3-|-0-|
                    * *    last time
Bass interlude

eb|----------|
Bb|----------|
Gb|----------|
Db|-10//\\11-|
Ab|-8-//\\9--|
Eb|----------|


Riff 1 x2

Riff 3 x4
eb|-------------------------------------------------------------|
Bb|-------------------------------------------------------------|
Gb|-------------------------------------------------------------|
Db|-7---7---6-----------------------7---7---6-------------------|
Ab|-5-------------------------------5---------------------------|
Eb|-------------0-0-0-0-0-0-0-0-0-0-------------0-0-0-0-0-0-9-7-|
                * * * * * * * * * *             * * * * * *

(End)
eb|---|
Bb|---|
Gb|---|
Db|---|
Ab|-2-|
Eb|-0-|

Ring Out

eb|----------|
Bb|----------|
Gb|----------|
Db|-10//\\11-|
Ab|-8-//\\9--|
Eb|----------|

Riff 1 x2
Riff 3 x4
Riff 2 x4

Riff 4 x4
eb|-------------------------------------------------------------|
Bb|-------------------------------------------------------------|
Gb|-------------5---------4---------------------5---------4-----|
Db|-2-----------5---------4---------------------5---------4---5-|
Ab|-2-----------3---------2---------------------3---------2---5-|
Eb|-0-------0-0-----------------------------0-0---------------3-|
            * *                             * *

Cut-in
eb|---------------------------------------------------------------------|
Bb|---------------------------------------------------------------------|
Gb|---------------------------------------------------------------------|
Db|-2-------------------------------------------------------------------|
Ab|-2-------------2-2-----2-2-----2-2-------------7-7-7--7--6---------7-|
Eb|-0-------------0-0-----0-0-----0-0-------------5-5-5--5--4---------5-|
                  * *     * *     * *

Riff 5
                   x8
eb|-----------------|
Bb|-----------------|
Gb|-----------------|
Db|---------5-5-----|
Ab|-----4-4-----4-4-|
Eb|-4-4-------------|
    * * * *     * *

                   x4
eb|-----------------|
Bb|-----------------|
Gb|-----------------|
Db|---------5-5-----|
Ab|-----4-4-----4-4-|
Eb|-3-3-------------|
    * * * *     * *

                   x4
eb|-----------------|
Bb|-----------------|
Gb|-----------------|
Db|---------5-5-----|
Ab|-----4-4-----4-4-|
Eb|-4-4-------------|
    * * * *     * *

                   x4
eb|-----------------|
Bb|-----------------|
Gb|-----------------|
Db|---------5-5-----|
Ab|-----4-4-----4-4-|
Eb|-3-3-------------|
    * * * *     * *

Riff 6 x4

Guitar 1
eb|---------------------------|
Bb|---------------------------|
Gb|---------------------------|
Db|-3-----------5-------2---2-|
Ab|-3-----------5-------2---2-|
Eb|-1-----------3-------0---0-|

Riff 5 x1 (last 2)
Riff 6 x1
Intro  x1
Riff 1 x2

Riff 1b x2
eb|-----------------------------------------------------------|
Bb|-----------------------------------------------------------|
Gb|-----------------------------------------------------------|
Db|-2---3---6------------------------2---3---6--------------3-|
Ab|-2---3---6----2-2-----2-2-----2-2-2---3---6----2-2---2-2-3-|
Eb|-0---1---4----0-0-----0-0-----0-0-0---1---4----0-0---0-0-1-|
                 * *     * *     * *              * *   * *

Riff 3 x4
Riff 2 x4
Riff 4 x4

Ending (ring out)
eb|---------------------------------|
Bb|---------------------------------|
Gb|---------------5---------------4-|
Db|-2-------------5---------------4-|
Ab|-2-------------3---------------2-|
Eb|-0-------------------------------|

eb|------------------------------------|
Bb|------------------------------------|
Gb|------------------------------------|
Db|------------------------------------|
Ab|------------------------------------|
Eb|------------------------------------|

Guitar 2 is still missing most parts, solos. I'll get on that later.
the_Iced_Earth@hotmail.com

notation:
^   =  bend [ ^ = half, ^^ = whole, etc. ]
^r  =  bend and release
x   =  mute with fret-hand
*   =  mute with palm-hand
X\\ =  pick slide
h   =  hammer-on
p   =  pull-off
~   =  vibrato
t   =  tap-on
/   =  slide up
\   =  slide down
h.  =  harmonics
ah  =  artificial harmonic
(9) =  ghost note
tm  =  trem picking
tr  =  trill

  Visit MetalTabs.com for more metal tablature

bottom separator

Contact Us | Privacy Policy | Disclaimer | Legal Notice
Copyright © 2001-2014 MetalTabs.com. All Rights Reserved.