top separator

Home

Forum

What's New

Submit a Tab

FAQ

Links

Contact Us

Link to Us

MetalTabs.com logo

Bands

0-9

A

B

C

D

E

F

G

H

I

J

K

L

M

N

O

P

Q

R

S

T

U

V

W

X

Y

Z

Search

What

Where
 

Sacrifice - "The Lost" Guitar Tab

Plain Text Version
More Sacrifice Tabs

Hits: 2989
Rated: 4.33 out of 5 (3 votes)
Updated: 2002-08-04 07:04:33

 

Important note
This tab is available online because we obtained explicit permission from Sacrifice or their label.


#----------------------------------PLEASE NOTE---------------------------------#
#This file is the author's own work and represents their interpretation of the #
#song. You may only use this file for private study, scholarship, or research. #
#Unless specified otherwise, this is NOT an official tab from the band members.#
#------------------------------------------------------------------------------#

  Visit MetalTabs.com for more metal tablature
  
Artist: Sacrifice
Album: Apocalypse Inside
Track: The Lost
Tabbed by:
Phil Tuncap (the_Iced_Earth@hotmail.com)
Andreas Rana (bloodshed@rocketmail.com)

1/2 Step Down

Both guitars
eb|-------------|
Bb|-------------|
Gb|----------12-|
Db|-----9-10----|
Ab|-2-2---------|
Eb|-0-0---------|
    * *
Intro x2

Guitar 1
eb|-------------|
Bb|-------------|
Gb|----------12-|
Db|-----9-10----|
Ab|-2-2---------|
Eb|-0-0---------|
    * *

Guitar 2
eb|------------------------------------|
Bb|------------------------------------|
Gb|----------12------------------------|
Db|-----9-10--------7---10-------------|
Ab|-2-2-------------5---8--------5---3-|
Eb|-0-0---------0-0---0----0-0-3---1---|
    * *         * *   *    * *

Guitar 1
eb|--------------------------------------|
Bb|--------------------------------------|
Gb|--------------------------------------|
Db|-------------------------------3-0tr2-|
Ab|-2-2-------------------------5--------|
Eb|-0-0----------------------------------|
    * *                         * *

Guitar 2
eb|--------------------------------------|
Bb|--------------------------------------|
Gb|--------------------------------------|
Db|-----9-10-9tr10---7---10-------3-0tr2-|
Ab|-2-2--------------5---8------5--------|
Eb|-0-0------------0---0----0-0----------|
    * *            *   *    * * * *

Both Guitars all x4

Riff 1 x4

Guitar 1
eb|--------------------------|
Bb|--------------------------|
Gb|-----------------------9\-|
Db|-------------------9---9\-|
Ab|-2-2-------2-2-----7---7\-|
Eb|-0-0---x---0-0---x--------|
    * *       * *

eb|-------------------------------|
Bb|-------------------------------|
Gb|-----------------------0-------|
Db|-----------------3-------3-----|
Ab|-2-2-------2-3-----3-------3---|
Eb|-0-0---x---0-1-------1-------1-|
    * *       * *     * *     * *

Guitar 2 solos, comes in on 3.25

Riff 2

Guitar 1
eb|------------------------------------------------|
Bb|------------------------------------------------|
Gb|------------------------------------------------|
Db|-9-------7---9-------------10---------------10\-|
Ab|-7-------5---7-------------8-----------------8\-|
Eb|-0----------------------------------------------|

Guitar 2
eb|------THE REST-|
Bb|---------------|
Gb|---------------|
Db|---------------|
Ab|-2-------------|
Eb|-0-------------|

eb|---------------------------0-|
Bb|---------------------------0-|
Gb|-----------------------------|
Db|-----------------------------|
Ab|---3-----3-----3-2-----------|
Eb|-0-1---0-1---0-1-0-----------|
    *     *     *

eb|------------------------------------|
Bb|------------------------------------|
Gb|------------------------------------|
Db|--------------------3-----2-----3h5-|
Ab|-5-3-----3--------------------------|
Eb|-3-1-----1-----1--1-----1-----1-----|
                  *  *     *     *

eb|------------------------------------------------|
Bb|------------------------------------------------|
Gb|------------------------------------------------|
Db|---------7---9----------------------------------|
Ab|-7-------5---7------------/8-----------------8\-|
Eb|-0----------------------------------------------|

Guitar 2
eb|------THE REST-|
Bb|---------------|
Gb|---------------|
Db|---------------|
Ab|-2-------------|
Eb|-0-----0-------|

eb|---------------------------0-|
Bb|---------------------------0-|
Gb|-----------------------------|
Db|-----------------------------|
Ab|---3-----3-----3-2-----------|
Eb|-0-1---0-1---0-1-0-----------|
    *     *     *

eb|------------------------------------|
Bb|------------------------------------|
Gb|------------------------------------|
Db|--------------------3-----2-----3h5-|
Ab|-5-3-----3--------------------------|
Eb|-3-1-----1-----1--1-----1-----1-----|
                  *  *     *     *

Riff 1 x4 guitar 2 solos, comes in on 3.25
Riff 2 x1

Bridge

Guitars 1+2
eb|----------------------------------------------------|
Bb|----------------------------------------------------|
Gb|----------------------------------------------------|
Db|-9---------------7----------------------------------|
Ab|-7---------------5---------------5----------------3-|
Eb|-0-------------------------------3----------------1-|

Riff 3 x4

Guitar 1
eb|---------------------|
Bb|---------------------|
Gb|---------------------|
Db|---------------------|
Ab|---5---------------7-|
Eb|-3---6-0-3-5-0---0---|
		    *

eb|---------------------------------------------|
Bb|---------------------------------------------|
Gb|---------------------------------------------|
Db|---------------------------------------------|
Ab|-------------------5-------------------------|
Eb|-0-0-0-0-0-0-0-0-0---6-5-0---0-6-0-0-0-0-0-0-|
    * * * * * * * * *           *   * * * * * *

Riff 3b x2

eb|----------------|---|-------------------------------|
Bb|----------------|---|-------------------------------|
Gb|----------------|---|-------------------------------|
Db|----------------|---|-------------------------------|
Ab|---5------------|---|---5-----3---------5-3-2---2-3-|
Eb|-3---6-0-3-5-2--|-2-|-2---2-2---2-2-2-2-------5-----|
   ..1st            2nd  *   * *   *   * *

eb|-------------------|-------------|
Bb|-------------------|-------------|
Gb|-------------------|-------------|
Db|-------------------|-------------|
Ab|-----5-----3-------|-----------5-|
Eb|-2-2---2-2---2-2-2-|-2-2-222-223-|
    * *   * *   *   *   * * *** **

Riff 3 x2
Riff 3b x2
Riff 3 x2
Riff 3b x1.5

Riff 3c
eb|----------------------------|
Bb|----------------------------|
Gb|----------------------------|
Db|----------------------------|
Ab|---5--------------5---------|
Eb|-3---6-0-3-5-0--3---6-0-3-5-|

Intro x1 (guitar 1: 1st 2 notes, 2nd 'riff' play 2nd guitar)

Riff 4 x2

-----------------------------------|
-----------------------------------|
----------12-----------------------|
-----9-10--------------------------|
-------------2-2-2-2-2-2-2-2-2-2-2-|
-0-0---------0-0-0-0-0-0-0-0-0-0-0-|


---------------------------------------|
---------------------------------------|
---------------------------------------|
-----9-10-9tr10----------------10---10-|
-----------------2-2-2-2-2-2-2-8----8--|
-0-0-------------0-0-0-0-0-0-0----0----|

Intro x2 (guitar 1 all)
Bridge x1

Ending
eb|----------------|
Bb|----------------|
Gb|----------------|
Db|-------------9/-|
Ab|---5---------7/-|
Eb|-3---6-0-3-5----|

some guitar 2 is left out, plus the solos. I'll get to guitar 2 in a bit.
the_Iced_Earth@hotmail.com

notation:
^   =  bend [ ^ = half, ^^ = whole, etc. ]
^r  =  bend and release
x   =  mute with fret-hand
*   =  mute with palm-hand
X\\ =  pick slide
h   =  hammer-on
p   =  pull-off
~   =  vibrato
t   =  tap-on
/   =  slide up
\   =  slide down
h.  =  harmonics
ah  =  artificial harmonic
(9) =  ghost note
tm  =  trem picking
tr  =  trill

  Visit MetalTabs.com for more metal tablature

bottom separator

Contact Us | Privacy Policy | Disclaimer | Legal Notice
Copyright © 2001-2014 MetalTabs.com. All Rights Reserved.