top separator

Home

Forum

What's New

Submit a Tab

FAQ

Links

Contact Us

Link to Us

MetalTabs.com logo

Bands

0-9

A

B

C

D

E

F

G

H

I

J

K

L

M

N

O

P

Q

R

S

T

U

V

W

X

Y

Z

Search

What

Where
 

Control Denied - "Expect the unexpected" Guitar Tab

Plain Text Version
More Control Denied Tabs

Hits: 7488
Rated: 1.86 out of 5 (7 votes)
Updated: 2002-08-04 06:58:58

 

Important note
We did our best to reach Control Denied and ask for their permission to publish this tab. Unfortunately they did not respond to our requests or we could not find a way to contact them. This tab is available online until Control Denied tells us to take it down.


#----------------------------------PLEASE NOTE---------------------------------#
#This file is the author's own work and represents their interpretation of the #
#song. You may only use this file for private study, scholarship, or research. #
#Unless specified otherwise, this is NOT an official tab from the band members.#
#------------------------------------------------------------------------------#

  Visit MetalTabs.com for more metal tablature
  
                              EXPECT THE UNEXPECTED
                          As recorded by Chuck Shuldiner
               (From the 2000 Album THE FRAGILE ART OF EXISTANCE)


Words and Music by Chuck Shuldiner
Transcribed by Henrik Lindholm

Hey my first death metal tab... =)


    85 Bpm

D tuning

Intro

||---------------------------|----------------------------------||
||o--------------------------|---------------------------------o||
||---------------------------|----------------------------------||
||---------------7-6-3-------|--------------7-6-----------------||
||o--------3-6-7-------3-----|--------3-6-7-----6-7------------o||
||--4--5-7---------------7-5-|-4--5-7---------------------------||

                              ------------------------------------
                             | 1.,2.
||---------------------------|----------------------------------||
||o--------------------------|---------------------------------o||
||---------------------------|----------------------------------||
||---------------7-6-3-------|--------------7-6-----------------||
||o--------3-6-7-------3-----|--------3-6-7-----6-7------------o||
||--4--5-7---------------7-5-|-4--5-7---------------------------||
|
|
|
||---------------------------|----------------------------------||
||o--------------------------|---------------------------------o||
||---------------6-5-2-------|--------------6-5-----------------||
||-----------3-6-------2-----|----------3-6-----6-7-------------||
||o-2--3-6-7-------------6-3-|-2--3-6-7------------------------o||
||---------------------------|----------------------------------||

 -------------------------------
| 3.
|------------------------------|
|------------------------------|
|------------------------------|
|--------------7-6-------------|
|--------3-6-7-----6-7---------|
|-4--5-6-----------------------|
|
|
|------------------------------|
|------------------------------|
|--------------6-5-------------|
|----------3-6-----6-7---------|
|-2--3-6-7---------------------|
|------------------------------|




Main Riff 1a - 170 Bpm

||---------------------------|---------------------------|
||---------------------------|---------------------------|
||---------------------------|---------------------------|
||---------------------------|---------------------------|
||-4-------4-----------------|-4-------4-----------------|
||---4-4-4---4-4-4-4-4-4-4-4-|---4-4-4---4-4-4-4-4-4-4-4-|
      ' ' '   ' ' ' ' ' ' ' '     ' ' '   ' ' ' ' ' ' ' '

|---------------------------|------------------------------|
|---------------------------|------------------------------|
|---------------------------|------------------------------|
|---------------------------|------------------------------|
|-5-------5-----------------|-5-------5--------------------|
|---5-5-5---5-5-5-5-5-5-5-5-|---5-5-5---5-5-5-5-5-5-5-5----|
    ' ' '   ' ' ' ' ' ' ' '     ' ' '   ' ' ' ' ' ' ' '



Main riff 1b

|-----------------|------------------|
|-----------------|------------------|
|-----------------|------------------|
|-4-------4-------|-4----------------|
|-2-------2-------|-2-------7~-------|
|---2-2-2-----2-2-|---2-2-2-----2-2--|
    ' ' '     ' '     ' ' '     ' '


|---------------------------|----------------------------||
|---------------------------|----------------------------||
|---------------------------|----------------------------||
|---------------------------|----------------------------||
|-5-------5-----------------|-5-------5------------------||
|---5-5-5---5-5-5-5-5-5-5-5-|---5-5-5---5-5-5-5-5-5-5-5--||
    ' ' '   ' ' ' ' ' ' ' '     ' ' '   ' ' ' ' ' ' ' '

Main riff 1a 1x
Main riff 1b 1x
Main riff 1a 1x
Main riff 1b 1x
Main riff 1a 1x


Main Riff 2a

||--------------------------|----------------------------|
||O-------------------------|----------------------------|
||--------------------------|----------------------------|
||--------------------------|----------------------------|
||O--------------3----------|-------3--------------------|
||-0-0-0-0-0-0-1----0-0-0-0-|-0-0-1----0-0-0-0-0-0-0-0---|
|  ' ' ' ' ' ' '    ' ' ' '   ' ' '    ' ' ' ' ' ' ' '
|
||--------------------------|----------------------------|
||O-------------------------|----------------------------|
||--------------------------|----------------------------|
||--------------------------|----------------------------|
||O-------------------------|----------------------------|
||--------------------------|------------------0-0-0-0---|
                                               ' ' ' '


|-------------------------|----------------------||
|-------------------------|---------------------O||
|-------------------------|----------------------||
|-------------------------|-----------------3----||
|---------------3---------|-------3---------3---O||
|-0-0-0-0-0-0-1---0-0-0-0-|-0-0-1---3p1p0h1-1----||
| ' ' ' ' ' ' '   ' ' ' '   ' ' '
|-------------------------|----------------------||
|-------------------------|---------------------O||
|-------------------------|----------------------||
|-------------------------|-----------------3----||
|---------------3---------|-------3---------3---O||
|-0-0-0-0-0-0-1---0-0-0-0-|-0-0-1---3p1p0h1-1----||
  ' ' ' ' ' ' '   ' ' ' '   ' ' '


Main riff 2b 2x

||--------------------------|-------------------------|
||o-------------------------|-------------------------|
||--------------------------|-------------------------|
||--------------------------|-------------------------|
||o---------------3---------|-------3-----------------|
||--0-0-0-0-0-0-1---0-0-0-0-|-0-0-1---0-0-0-0-0-0-0-0-|
|   ' ' ' ' ' ' '   ' ' ' '   ' ' '   ' ' ' ' ' ' ' '
|
||--------------------------|-------------------------|
||o-------------------------|-------------------------|
||--------------------------|-------------------------|
||--------------------------|-------------------------|
||o---------------3---------|-------3-----------------|
||--0-0-0-0-0-0-1---0-0-0-0-|-0-0-1---0-0-0-0-0-0-0-0-|
    ' ' ' ' ' ' '   ' ' ' '   ' ' '   ' ' ' ' ' ' ' '


|-------------------------|--------------------||
|-------------------------|-------------------o||
|-------------------------|--------------------||
|-------------------------|-----------------3--||
|---------------3---------|-------3---------3-o||
|-0-0-0-0-0-0-1---0-0-0-0-|-0-0-1---3p1p0h1-1--||
| ' ' ' ' ' ' '   ' ' ' '   ' ' '
|
|-------------------------|--------------------||
|-------------------------|-------------------o||
|-------------------------|--------------------||
|-------------------------|-----------------3--||
|---------------3---------|-------3---------3-o||
|-0-0-0-0-0-0-1---0-0-0-0-|-0-0-1---3p1p0h1-1--||
  ' ' ' ' ' ' '   ' ' ' '   ' ' '


Main riff 3a

||---------------------------|-----------------------------|
||o--------------------------|-----------------------------|
||----------------------5-4--|----------------------7-9----|
||------------------7p6------|-----------------10p9--------|
||o-0-0-0-0-0-0-0-0----------|-0-0-0-0-0-0-0-0-------------|
||---------------------------|-----------------------------|

                                   ------------------------------------
                                  | 1.
|---------------------------------|------------------------------------||
|---------------------------------|-----------------------------------o||
|---------------------------------|------------------------------------||
|---------------------------------|------------------------------------||
|---------3---------------3-------|---------5---------------5---------o||
|-1-1-1-1-1-1-1-1-1-1-1-1-1-1-1-1-|-3-3-3-3-3-3-3-3-3-3-3-3-3-3-3-3----||


 -------------
| 2.
|-------------|
|-------------|
|-----5-------|
|--3--5--6----|
|--3--3--6----|
|--1-----4----|





Main riff 3b

||---------------------------|-----------------------------|
||o--------------------------|-----------------------------|
||----------------------5-4--|----------------------7-9----|
||------------------7p6------|-----------------10p9--------|
||o-0-0-0-0-0-0-0-0----------|-0-0-0-0-0-0-0-0-------------|
||---------------------------|-----------------------------|
    ' ' ' ' ' ' ' '            ' ' ' ' ' ' ' '

|---------------------------------|-----------------------------------|
|---------------------------------|-----------------------------------|
|---------------------------------|-----------------------------------|
|---------------------------------|-----------------------------------|
|---------3---------------3-------|---------5---------------5---------|
|-1-1-1-1-1-1-1-1-1-1-1-1-1-1-1-1-|-3-3-3-3-3-3-3-3-3-3-3-3-3-3-3-3---|
  ' ' ' ' ' ' ' ' ' ' ' ' ' ' ' '   ' ' ' ' ' ' ' ' ' ' ' ' ' ' ' '


|--------------------------|-----------------------------|
|--------------------------|-----------------------------|
|---------------------5-4--|----------------------7-9----|
|-----------------7p6------|-----------------10p9--------|
|-0-0-0-0-0-0-0-0----------|-0-0-0-0-0-0-0-0-------------|
|--------------------------|-----------------------------|
  ' ' ' ' ' ' ' '            ' ' ' ' ' ' ' '


|---------------------------------|---------------||
|---------------------------------|--------------o||
|---------------------------------|------5--------||
|---------------------------------|-3----5--6-----||
|---------3---------------3-------|-3----3--6----o||
|-1-1-1-1-1-1-1-1-1-1-1-1-1-1-1-1-|-1-------4-----||
  ' ' ' ' ' ' ' ' ' ' ' ' ' ' ' '



  115 Bpm

Pre-solo riff 1a

|------------------|---------------------|
|------------------|---------------------|
|-------5----------|---------------------|
|----------9-5-[7]-|-----------[7]---5-4-|
|------------------|---------------------|
|-8-5-8------------|-------7-8-----------|
                           ' '

Pre-solo riff 1b

||-----------------|-------------------|
||o-------8--------|-------------------|
||--------5------9-|---------9---------|
||-----------9-5-7-|---------7---5-4---|
||o-7---7----------|-------------------|
||----7------------|-----7-8-----------|
|                        ' '
||-----------------|-------------------|
||o----------------|-------------------|
||--------5--------|-------------------|
||--------5------7-|---------7---------|
||o-------3------7-|---------7---------|
||---------------5-|---------5---------|


|------------------|-------------------|
|---------8--------|-------------------|
|---------5------9-|---------9---------|
|------------9-5-7-|---------7---5-4---|
|--7----7----------|-------------------|
|-----7------------|-----7-8-----------|
|                        ' '
|------------------|-------------------|
|------------------|-------------------|
|---------5--------|-------------------|
|---------5------7-|---------7---------|
|---------3------7-|---------7---------|
|----------------5-|---------5---------|



|------------------|-------------------|
|---------8--------|-------------------|
|---------5------9-|---------9---------|
|------------9-5-7-|---------7---5-4---|
|--7----7----------|-------------------|
|-----7------------|-----7-8-----------|
|                        ' '
|------------------|-------------------|
|------------------|-------------------|
|---------5--------|-------------------|
|---------5------7-|---------7---------|
|---------3------7-|---------7---------|
|----------------5-|---------5---------|


                    _________________
                   | 1.
|---------.--------|-----------------||
|---------8------.-|------.---------o||
|---------5------9-|------9----------||
|------------9-5-7-|------7---5-4----||
|--7----7----------|----------------o||
|-----7------------|--7-8------------||
|                     ' '
|------------------|-----------------||
|---------.--------|----------------o||
|---------5------.-|------.----------||
|---------5------7-|------7----------||
|---------3------7-|------7---------o||
|----------------5-|------5----------||


Solo 1
 ______________________________
| 2.
|------------------------------|-10--------|
|------------------------------|-----------|
|------------------------------|-----------|
|------[9]b--------------------|-----------|
|------------------------------|-----------|
|--7-8-------------------------|-----------|
   ' '

    T.h             Play with wammy =)
|--10(22)---------|-(10)--------|-(10)----|
|-----------------|-------------|---------|
|-----------------|-------------|---------|
|-----------------|-------------|---------|
|-----------------|-------------|---------|
|-----------------|-------------|---------|


|-19----19----|-19b--19b----|-----------|
|-21b-r-21b-r-|-21b--21b----|-----------|
|-------------|-------------|-Sorry-=(--|
|-------------|-------------|-----------|
|-------------|-------------|-----------|
|-------------|-------------|-----------|


This probably sound like shit cause I
have a really strange tuning on my guitar

|---------------------|----------------|
|---------------------|----------------|
|---------------------|----------------|
|---------------------|-10----------10-|
|-13-11-10---10-12-13-|----------13----|
|---------------------|----------------|
|
|---------------------|----------------|
|---------------------|----------------|
|---------------------|-12-------11-12-|
|------------12-14-15-|----------------|
|---------------------|----------------|
|---------------------|----------------|


|----------------|-------------|--------------------|
|----------------|-------------|--------------------|
|----------------|-------------|--------------------|
|----------------|----------12-|-10--9-10-9---1-0---|
|-13-------12-13-|-12----------|------------5-----3-|
|----------------|-------------|--------------------|
|
|----------------|-------------|--------------------|
|----------------|-------------|--------------------|
|-11--------9-11-|--9----------|--------------------|
|----------------|-----------9-|--7--5--7-5---5-7---|
|----------------|-------------|------------9-----7-|
|----------------|-------------|--------------------|


|---------|
|---------|
|---------|
|-[12]...-|
|---------|
|---------|

Sorry, i'll try to do the solo later.


Pre solo riff 2a

|--------------------------------------------|
|--------------------------------------------|
|--------------------------------------------|
|--------------------------------------5-----|
|--------------------------------7-9-7---9-7-|
|-0-0-0-0-0-0-0-0-0-0-0-0-0-0-0--------------|


|-----------------------------------------|
|--------------------------------.-.-.----|
|--------------------------------4-5-7-.--|
|--------------------------------4-5-7-5--|
|--------------------------------2-3-5-5--|
|-0-0-0-0-0-0-0-0-0-0-0-0-0-0-0--------3--|
|
|-----------------------------------------|
|-----------------------------------------|
|-----------------------------------------|
|-----------------------------------------|
|-----------------X\----------------------|
|-----------------------------------------|


Pre solo riff 2b

Both guitars

|--------------------------------------------|
|--------------------------------------------|
|--------------------------------------------|
|--------------------------------------5-----|
|--------------------------------7-9-7---9-7-|
|-0-0-0-0-0-0-0-0-0-0-0-0-0-0-0--------------|


|--------------------------------------------|
|--------------------------------.--.-.--.---|
|--------------------------------9-11-12-9---|
|--------------------------------9-11-12-9---|
|--------------------------------7-9--10-7---|
|-0-0-0-0-0-0-0-0-0-0-0-0-0-0-0--------------|



Pre solo riff 2c

Both guitars

|-----------------------------------------|
|--------------------------------.-.-.----|
|--------------------------------4-5-7-.--|
|--------------------------------4-5-7-5--|
|--------------------------------2-3-5-5--|
|-0-0-0-0-0-0-0-0-0-0-0-0-0-0-0--------3--|


Pre solo riff 2b


Ending

|------------|
|--.-.-.-.---|
|--4-7-5-4---|
|--4-7-5-4---|
|--2-5-3-2---|
|------------|

Main riff 1a 1x
Main riff 1b 1x
Main riff 1a 1x
Main riff 1b 1x
Main riff 1a 1x
Main riff 1b 1x
Main riff 1a 1x
Main riff 2a 1x
Main riff 2b 2x
Main riff 3a 1x
Main riff 3b 1x

  Visit MetalTabs.com for more metal tablature

bottom separator

Contact Us | Privacy Policy | Disclaimer | Legal Notice
Copyright © 2001-2014 MetalTabs.com. All Rights Reserved.