top separator

Home

Forum

What's New

Submit a Tab

FAQ

Links

Contact Us

Link to Us

MetalTabs.com logo

Bands

0-9

A

B

C

D

E

F

G

H

I

J

K

L

M

N

O

P

Q

R

S

T

U

V

W

X

Y

Z

Search

What

Where
 

Brimstone - "Autumn" Guitar Tab

Plain Text Version
More Brimstone Tabs

Hits: 4285
Rated: 4.33 out of 5 (9 votes)
Updated: 2002-08-04 06:54:55

 

Important note
We did our best to reach Brimstone and ask for their permission to publish this tab. Unfortunately they did not respond to our requests or we could not find a way to contact them. This tab is available online until Brimstone tells us to take it down.


#----------------------------------PLEASE NOTE---------------------------------#
#This file is the author's own work and represents their interpretation of the #
#song. You may only use this file for private study, scholarship, or research. #
#Unless specified otherwise, this is NOT an official tab from the band members.#
#------------------------------------------------------------------------------#

  Visit MetalTabs.com for more metal tablature
  
Artist: Brimstone
Song:   Autumn
Album:  Carving a crimson career

[-note-] – Pinch harmonic

  A5
Rhy.1
|-------------------------------------------------|
|-------------------------------------------------|
|-2-2-2-4-2-2-5-2-2-4-2-2-2-2-2-4-2-2-5-2-2-4-2-2-|
|-------------------------------------------------|
|-------------------------------------------------|
|-------------------------------------------------|

  G5 G5
                                           End Rhy.1|
|-------------------------------------------------|
|-------------------------------------------------|
|-0-0-0-2-0-0-4-0-0-2-0-0-9-0-0-7-0-0-5-0-0-4-0-0-|
|-------------------------------------------------|
|-------------------------------------------------|
|-------------------------------------------------|

Rhy.1 second ending: (only this time)
|------------------------------------------------------|
|------------------------------------------------------|
|------------------------------------------------------|
|-0-0-0-2-0-0-4-0-0-2-0-0---[7]/[9]--[7]--[5]--4--2--0-|
|------------------------------------------------------|
|------------------------------------------------------|

Rhy.1 third ending: (also only one time)
|------------------------------------------------|
|------------------------------------------------|
|------------------------------------------------|
|0-0-0-2-0-0-4-0-0-2-0-0---4-5-4--2--5--4--2--0--|
|------------------------------------------------|
|------------------------------------------------|

_______________________________________________________________________
Verse:
Rhy.2                                                            End Rhy.2|(4x)
 (1. Git.)
|-----------------------------------------------------------------------------|
|-----------------------------------------------------------------------------|
|-----------------------------------------------------------------------------|
|-2----------------------2222-------------2----------2—-----------------------|
|-000000000000-2222-3333------3333-2222---000000000000—---5----3--------5-----|
|---------------------------------------3-----------------3----111111---333333|
 p.m...................................... .......... .... .... ........ .....

(2. Git.)
|-----------------------------------------------------------------------------|
|-----------------------------------------------------------------------------|
|------------------------9...-------------------------------------------------|
|-7...........-9...10...-----10...-9...—--7...........----10---8......-10....-|
|--------------------------------------10-------------------------------------|
|-----------------------------------------------------------------------------|
 p.m.........................................................................

[Rhy.1] 1x
...again

(Rhy.2 ending at the end of verse 1)
|----------------------------------------|
|----------------------------------------|
|----------------------------------------|
|-2----------2—--------------------------|
|-000000000000—---5----3--------5-5-5----|
|-----------------3----111111---3-3-3----|
   ..........           .....

___________________________________________________________________
Bridge:

Rhy.3
|-----------------------------------------------|
|-----------------------------------------------|
|--4-4-4-4-4-4-4-4-4-4-4-4-4-4-4-4-4-4-4-4-4----| <-2.Git.
|--4---------------5-----4-----2-----4-----2----| <-1.Git.
|--2-2-2-2-2-2-2-2-2-2-2-2-2-2-2-2-2-2-2-2-2----| <-1.Git.
|-----------------------------------------------|
p.m.........................................

                                       End Rhy.3|(2x)
|----------------------------------------------|
|----------------------------------------------|
|--7-7-7-7-7-7-7-7-7-7-7-7-7-7-7-7-7-7-7-7-7---| <-2.Git.
|--7---------------8-----7-----5---------------| <-1.Git.
|--5-5-5-5-5-5-5-5-5-5-5-5-5-5-5-5-5—--8---7---| <-1.Git.
|----------------------------------------------|
 p.m...........................................
______________________________________________________________________________
Chorus:

Rhy.4
|----------------------------------------------------------------------------|
|----------------------------------------------------------------------------|
|----------------------------------------------------------------------------|
|----------10-10-10-999------------------------------------------------------|
|-777777777-------------10-10-10-999-10-10-10--------------------------------|
|---------------------------------------------10-10-10-10-10-10-10-10-10-----|
...Autumn

|--------------------------------------------------------------|
|--------------------------------------------------------------|
|--------------------------------------------------------------|
|--------------777--------------------10-10-10-999-------------|
|-999-10-10-10-----10-10-99-777777777-------------10-10-10-999-|
|--------------------------------------------------------------|
                            Autumn...
                                     End Rhy.4|(2x)
|--------------------------------------------|
|--------------------------------------------|
|--------------------------------------------|
|--------------------------------------------|
|--------------------------------------------|
|-10-10-10-10-10-10-10-10-10-777-88888-77777-|

_____________________________________________________________________________

| --------------------------------------------------------------------------
| --------------------------------------------------------------------------
|.----4--2-------------4--2--------------------4-----2--------4-----4/5—4/5-
|.-2--------4--5----2--------5--4--4-2-0----4-----4--------4-----4----------
| ---------------------------------------3--------------3-------------------
| --------------------------------------------------------------------------

---------------------------------------------------------------------------- |
---------------------------------------------------------------------------- |
----4--2-------------4--2---------------------4-----2--------4--2-4-5-4—5—7-.|
-2--------4--5----2--------5--4--4-2-0-----4-----4--------4-----------------.|
----------------------------------------3--------------3-------------------- |
---------------------------------------------------------------------------- |

_____________________________________________________________________________
Solo:

(2.Git.)
 |----------------------------------------
 |----------------------------------------
 |----4--2---------4/5—-4-----------------
 |-2--------4—-[5]------------------------
 |----------------------------------------
 |----------------------------------------

  -----------------------------------------|
  -----------------------------------------|
  ------4----2-----------------------------|
  ---4-----4-------------------------------|
  3----------------------------------------|
  -----------------------------------------|

(1.Git.)
 | ----------------------------------------
 | ----------------------------------------
 |o----------------------------------------
 |o-4/5--4-5—-7\5--4-5—-4/5--4-5—-7\5—-4-5—
 | ----------------------------------------
 | ----------------------------------------
         . .       . .       . .       . .

  --------------------------------------- |
  --------------------------------------- |
  ---------------------------------------o|
  -4\2--4-5—-4\2--4-5—-4\5--4-5—-5/7-4-5-o|
  --------------------------------------- |
  --------------------------------------- |
        . .       . .       . .      . .

 |-----------------------------------------
 |-----------------------------------------
 |-----------------------------------------
 |--5/7--5-4-5--5-4--4-2-2—2/5-5—-4-5-542—-
 |-----------------------------------------
 |-----------------------------------------

  ------------------------------------------|
  ------------------------------------------|
  ----------------------------------------6-|
  5/4-5\4-4--457-5-454—4\2-2—2/5-5-5/7-7----|
  ------------------------------------------|
  ------------------------------------------|

 (2.Git. changing Rhy. at half the solo)
 |--------------------------------------------------------------------------|
 |--------------------------------------------------------------------------|
 |----4--2-------------------------------------4----2-----------------------|
 |-2--------4—-[5]--------------------------4-----4-------------------------|
 |---------------------------------------3----------------------------------|
 |--------------------------------------------------------------------------|

____________________________________________________________________________
Second Solo:

Rhy.5                                                      End Rhy.5|(2x)
|---------------------------------------------------------------------|
|---------------------------------------------------------------------|
|---------------------------------------2-----2---2-----2-----2---2---|
|-----2-----5----2-----2-----5---2------2-----2---2-----2-----2---2---|
|-----2-----5----2-----2-----5---2--0-0---0-0---0---0-0---0-0---0-----|
|-0-0---0-0---0----0-0---0-0---0--------------------------------------|
  . .   . .   .    . .   . .   .    . .   . .   .   . .   . .   .

[Rhy.5]

|-----------------------------------------------------------------------|
|-----------------------------------------------------------------------|
|--------------10-8--12-10--13---13-12-13—-12-13-12--10-12-10-----------|
|-11-9--12-11--------------------------------------------------12-14-12-|
|-----------------------------------------------------------------------|
|-----------------------------------------------------------------------|


|-----------------------------------------------------------------------|
|-----------------------------------------------------------------------|
|-----------------------------------------------------------------------|
|-9-11-12-11-9----9-11-9----9------9-11-12-11-9----9--11--12--9-11-12---|
|--------------12--------12---------------------12----------------------|
|-----------------------------------------------------------------------|


|-----------------------------------------------------------------------|
|-10-12-13-12-10----10-----13-12-10--10-12-10-------------12------------|
|----------------12----------------12---------12--11-12-14--14-12-11----|
|-----------------------------------------------------------------------|
|-----------------------------------------------------------------------|
|-----------------------------------------------------------------------|


|-------------------------------------------------------|
|-------------------------------------------------------|
|-11--12—11/12\11-9---11/12\12-14-12-11----9-(let ring)-|
|---------------------------------------12--------------|
|-------------------------------------------------------|
|-------------------------------------------------------|

___________________________________________________________________________
Break:

|-----------------------------------------------------------------------|
|-----------------------------------------------------------------------|
|-----------------------------------------------------------------------|
|-2------------3------------5------------2-----------3------------------|
|-2------------3------------5------------2-----------3-----5--5--5------|
|-0----------111------------3------------0---------111-----3--3--3------|
             ..                                    ..

|-----------------------------------------------------------------------|
|-----------------------------------------------------------------------|
|-----------------------------------------------------------------------|
|-2------------3------------5------------2------------3------------5----|
|-2------------3------------5------------2------------3------------5----|
|-0----------111------------3------------0----------111------------3----|
             ..                                     ..
 Coming  to take            me         away          it’s          the

[Rhy.1] 2x
...Autumn

2. Verse (2x Rhy.2)

Bridge (2x Rhy.3)

Chorus: (2x Rhy.4)

|----------------|
|----------------|
|----4--2--------|
|-2--------4--5--|
|----------------|
|----------------|

comments to: raaalf@web.de

                    THE END

  Visit MetalTabs.com for more metal tablature

bottom separator

Contact Us | Privacy Policy | Disclaimer | Legal Notice
Copyright © 2001-2014 MetalTabs.com. All Rights Reserved.